  0
SECTION
  2
HEADER
  9
$ACADVER
  1
AC1015
  9
$ACADMAINTVER
 70
     6
  9
$DWGCODEPAGE
  3
ANSI_932
  9
$INSBASE
 10
0.0
 20
0.0
 30
0.0
  9
$EXTMIN
 10
0.0
 20
0.0
 30
0.0
  9
$EXTMAX
 10
332.97
 20
199.2125
 30
0.0
  9
$LIMMIN
 10
0.0
 20
0.0
  9
$LIMMAX
 10
420.0
 20
297.0
  9
$ORTHOMODE
 70
     0
  9
$REGENMODE
 70
     1
  9
$FILLMODE
 70
     1
  9
$QTEXTMODE
 70
     0
  9
$MIRRTEXT
 70
     1
  9
$LTSCALE
 40
1.0
  9
$ATTMODE
 70
     1
  9
$TEXTSIZE
 40
2.5
  9
$TRACEWID
 40
1.0
  9
$TEXTSTYLE
  7
Standard
  9
$CLAYER
  8
0
  9
$CELTYPE
  6
ByLayer
  9
$CECOLOR
 62
   256
  9
$CELTSCALE
 40
1.0
  9
$DISPSILH
 70
     0
  9
$DIMSCALE
 40
1.0
  9
$DIMASZ
 40
2.5
  9
$DIMEXO
 40
0.625
  9
$DIMDLI
 40
3.75
  9
$DIMRND
 40
0.0
  9
$DIMDLE
 40
0.0
  9
$DIMEXE
 40
1.25
  9
$DIMTP
 40
0.0
  9
$DIMTM
 40
0.0
  9
$DIMTXT
 40
2.5
  9
$DIMCEN
 40
2.5
  9
$DIMTSZ
 40
0.0
  9
$DIMTOL
 70
     0
  9
$DIMLIM
 70
     0
  9
$DIMTIH
 70
     0
  9
$DIMTOH
 70
     0
  9
$DIMSE1
 70
     0
  9
$DIMSE2
 70
     0
  9
$DIMTAD
 70
     1
  9
$DIMZIN
 70
     8
  9
$DIMBLK
  1

  9
$DIMASO
 70
     1
  9
$DIMSHO
 70
     1
  9
$DIMPOST
  1

  9
$DIMAPOST
  1

  9
$DIMALT
 70
     0
  9
$DIMALTD
 70
     2
  9
$DIMALTF
 40
0.0394
  9
$DIMLFAC
 40
1.0
  9
$DIMTOFL
 70
     1
  9
$DIMTVP
 40
0.0
  9
$DIMTIX
 70
     0
  9
$DIMSOXD
 70
     0
  9
$DIMSAH
 70
     0
  9
$DIMBLK1
  1

  9
$DIMBLK2
  1

  9
$DIMSTYLE
  2
Standard
  9
$DIMCLRD
 70
     0
  9
$DIMCLRE
 70
     0
  9
$DIMCLRT
 70
     0
  9
$DIMTFAC
 40
1.0
  9
$DIMGAP
 40
0.625
  9
$DIMJUST
 70
     0
  9
$DIMSD1
 70
     0
  9
$DIMSD2
 70
     0
  9
$DIMTOLJ
 70
     1
  9
$DIMTZIN
 70
     0
  9
$DIMALTZ
 70
     0
  9
$DIMALTTZ
 70
     0
  9
$DIMUPT
 70
     0
  9
$DIMDEC
 70
     2
  9
$DIMTDEC
 70
     2
  9
$DIMALTU
 70
     8
  9
$DIMALTTD
 70
     4
  9
$DIMTXSTY
  7
Standard
  9
$DIMAUNIT
 70
     0
  9
$DIMADEC
 70
     2
  9
$DIMALTRND
 40
0.0
  9
$DIMAZIN
 70
     0
  9
$DIMDSEP
 70
     0
  9
$DIMATFIT
 70
     3
  9
$DIMFRAC
 70
     0
  9
$DIMLDRBLK
  1

  9
$DIMLUNIT
 70
     6
  9
$DIMLWD
 70
    -2
  9
$DIMLWE
 70
    -2
  9
$DIMTMOVE
 70
     0
  9
$LUNITS
 70
     2
  9
$LUPREC
 70
     2
  9
$SKETCHINC
 40
1.0
  9
$FILLETRAD
 40
10.0
  9
$AUNITS
 70
     0
  9
$AUPREC
 70
     2
  9
$MENU
  1
.
  9
$ELEVATION
 40
0.0
  9
$PELEVATION
 40
0.0
  9
$THICKNESS
 40
0.0
  9
$LIMCHECK
 70
     0
  9
$CHAMFERA
 40
10.0
  9
$CHAMFERB
 40
10.0
  9
$CHAMFERC
 40
20.0
  9
$CHAMFERD
 40
0.0
  9
$SKPOLY
 70
     0
  9
$TDCREATE
 40
2454474.657761493
  9
$TDUCREATE
 40
2454474.282761493
  9
$TDUPDATE
 40
2456077.384263484
  9
$TDUUPDATE
 40
2456077.009263484
  9
$TDINDWG
 40
0.004861088
  9
$TDUSRTIMER
 40
0.0048147685
  9
$USRTIMER
 70
     1
  9
$ANGBASE
 50
0.0
  9
$ANGDIR
 70
     0
  9
$PDMODE
 70
     0
  9
$PDSIZE
 40
0.0
  9
$PLINEWID
 40
0.0
  9
$SPLFRAME
 70
     0
  9
$SPLINETYPE
 70
     6
  9
$SPLINESEGS
 70
     8
  9
$HANDSEED
  5
7C2
  9
$SURFTAB1
 70
     6
  9
$SURFTAB2
 70
     6
  9
$SURFTYPE
 70
     6
  9
$SURFU
 70
     6
  9
$SURFV
 70
     6
  9
$UCSBASE
  2

  9
$UCSNAME
  2

  9
$UCSORG
 10
0.0
 20
0.0
 30
0.0
  9
$UCSXDIR
 10
1.0
 20
0.0
 30
0.0
  9
$UCSYDIR
 10
0.0
 20
1.0
 30
0.0
  9
$UCSORTHOREF
  2

  9
$UCSORTHOVIEW
 70
     0
  9
$UCSORGTOP
 10
0.0
 20
0.0
 30
0.0
  9
$UCSORGBOTTOM
 10
0.0
 20
0.0
 30
0.0
  9
$UCSORGLEFT
 10
0.0
 20
0.0
 30
0.0
  9
$UCSORGRIGHT
 10
0.0
 20
0.0
 30
0.0
  9
$UCSORGFRONT
 10
0.0
 20
0.0
 30
0.0
  9
$UCSORGBACK
 10
0.0
 20
0.0
 30
0.0
  9
$PUCSBASE
  2

  9
$PUCSNAME
  2

  9
$PUCSORG
 10
0.0
 20
0.0
 30
0.0
  9
$PUCSXDIR
 10
1.0
 20
0.0
 30
0.0
  9
$PUCSYDIR
 10
0.0
 20
1.0
 30
0.0
  9
$PUCSORTHOREF
  2

  9
$PUCSORTHOVIEW
 70
     0
  9
$PUCSORGTOP
 10
0.0
 20
0.0
 30
0.0
  9
$PUCSORGBOTTOM
 10
0.0
 20
0.0
 30
0.0
  9
$PUCSORGLEFT
 10
0.0
 20
0.0
 30
0.0
  9
$PUCSORGRIGHT
 10
0.0
 20
0.0
 30
0.0
  9
$PUCSORGFRONT
 10
0.0
 20
0.0
 30
0.0
  9
$PUCSORGBACK
 10
0.0
 20
0.0
 30
0.0
  9
$USERI1
 70
     0
  9
$USERI2
 70
     0
  9
$USERI3
 70
     0
  9
$USERI4
 70
     0
  9
$USERI5
 70
     0
  9
$USERR1
 40
0.0
  9
$USERR2
 40
0.0
  9
$USERR3
 40
0.0
  9
$USERR4
 40
0.0
  9
$USERR5
 40
0.0
  9
$WORLDVIEW
 70
     1
  9
$SHADEDGE
 70
     3
  9
$SHADEDIF
 70
    70
  9
$TILEMODE
 70
     1
  9
$MAXACTVP
 70
    64
  9
$PINSBASE
 10
0.0
 20
0.0
 30
0.0
  9
$PLIMCHECK
 70
     0
  9
$PEXTMIN
 10
0.0
 20
0.0
 30
0.0
  9
$PEXTMAX
 10
420.0
 20
297.0
 30
0.0
  9
$PLIMMIN
 10
0.0
 20
0.0
  9
$PLIMMAX
 10
420.0
 20
297.0
  9
$UNITMODE
 70
     0
  9
$VISRETAIN
 70
     0
  9
$PLINEGEN
 70
     0
  9
$PSLTSCALE
 70
     1
  9
$TREEDEPTH
 70
  3020
  9
$CMLSTYLE
  2
Standard
  9
$CMLJUST
 70
     0
  9
$CMLSCALE
 40
20.0
  9
$PROXYGRAPHICS
 70
     1
  9
$MEASUREMENT
 70
     1
  9
$CELWEIGHT
370
    -1
  9
$ENDCAPS
280
     0
  9
$JOINSTYLE
280
     0
  9
$LWDISPLAY
290
     0
  9
$INSUNITS
 70
     0
  9
$HYPERLINKBASE
  1

  9
$STYLESHEET
  1

  9
$XEDIT
290
     1
  9
$CEPSNTYPE
380
     0
  9
$PSTYLEMODE
290
     1
  9
$FINGERPRINTGUID
  2

  9
$VERSIONGUID
  2

  9
$EXTNAMES
290
     1
  9
$PSVPSCALE
 40
0.0
  9
$OLESTARTUP
290
     0
  0
ENDSEC
  0
SECTION
  2
CLASSES
  0
CLASS
  1
ACDBDICTIONARYWDFLT
  2
AcDbDictionaryWithDefault
  3
ObjectDBX Classes
 90
        0
280
     0
281
     0
  0
CLASS
  1
ACDBPLACEHOLDER
  2
AcDbPlaceHolder
  3
ObjectDBX Classes
 90
        0
280
     0
281
     0
  0
CLASS
  1
LAYOUT
  2
AcDbLayout
  3
ObjectDBX Classes
 90
        0
280
     0
281
     0
  0
CLASS
  1
DICTIONARYVAR
  2
AcDbDictionaryVar
  3
ObjectDBX Classes
 90
        0
280
     0
281
     0
  0
CLASS
  1
TABLESTYLE
  2
AcDbTableStyle
  3
ObjectDBX Classes
 90
     4095
280
     0
281
     0
  0
CLASS
  1
SCALE
  2
AcDbScale
  3
ObjectDBX Classes
 90
     1153
280
     0
281
     0
  0
ENDSEC
  0
SECTION
  2
TABLES
  0
TABLE
  2
VPORT
  5
8
330
0
100
AcDbSymbolTable
 70
     2
  0
VPORT
  5
97
330
8
100
AcDbSymbolTableRecord
100
AcDbViewportTableRecord
  2
*ACTIVE
 70
     0
 10
0.0
 20
0.0
 11
1.0
 21
1.0
 12
224.9901265822785
 22
111.8962025316455
 13
0.0
 23
0.0
 14
10.0
 24
10.0
 15
10.0
 25
10.0
 16
0.0
 26
0.0
 36
1.0
 17
0.0
 27
0.0
 37
0.0
 40
302.94
 41
1.333333333333333
 42
50.0
 43
0.0
 44
0.0
 50
0.0
 51
0.0
 71
    16
 72
   100
 73
     0
 74
     3
 75
     0
 76
     0
 77
     0
 78
     0
281
     0
 65
     1
110
0.0
120
0.0
130
0.0
111
1.0
121
0.0
131
0.0
112
0.0
122
1.0
132
0.0
 79
     0
146
0.0
  0
ENDTAB
  0
TABLE
  2
LTYPE
  5
5
330
0
100
AcDbSymbolTable
 70
     1
  0
LTYPE
  5
14
330
5
100
AcDbSymbolTableRecord
100
AcDbLinetypeTableRecord
  2
ByBlock
 70
     0
  3
CONTINUOUS
 72
    65
 73
     0
 40
0.0
  0
LTYPE
  5
15
330
5
100
AcDbSymbolTableRecord
100
AcDbLinetypeTableRecord
  2
ByLayer
 70
     0
  3
CONTINUOUS
 72
    65
 73
     0
 40
0.0
  0
LTYPE
  5
16
330
5
100
AcDbSymbolTableRecord
100
AcDbLinetypeTableRecord
  2
Continuous
 70
     0
  3
CONTINUOUS
 72
    65
 73
     0
 40
0.0
  0
ENDTAB
  0
TABLE
  2
LAYER
  5
2
330
0
100
AcDbSymbolTable
 70
     2
  0
LAYER
  5
10
330
2
100
AcDbSymbolTableRecord
100
AcDbLayerTableRecord
  2
0
 70
     0
 62
     7
  6
Continuous
370
    -3
390
F
  0
LAYER
  5
BD
330
2
100
AcDbSymbolTableRecord
100
AcDbLayerTableRecord
  2
dim
 70
     0
 62
     3
  6
Continuous
370
    20
390
F
  0
ENDTAB
  0
TABLE
  2
STYLE
  5
3
330
0
100
AcDbSymbolTable
 70
     2
  0
STYLE
  5
11
330
3
100
AcDbSymbolTableRecord
100
AcDbTextStyleTableRecord
  2
Standard
 70
     0
 40
0.0
 41
1.0
 50
0.0
 71
     0
 42
0.2
  3
txt.shx
  4
extfont.shx
  0
STYLE
  5
BE
330
3
100
AcDbSymbolTableRecord
100
AcDbTextStyleTableRecord
  2
title1
 70
     0
 40
0.0
 41
1.0
 50
0.0
 71
     0
 42
0.2
  3
SIMPLEX
  4

1001
ACAD
1000
MS PGothic
1071
    32818
  0
ENDTAB
  0
TABLE
  2
VIEW
  5
6
330
0
100
AcDbSymbolTable
 70
     0
  0
ENDTAB
  0
TABLE
  2
UCS
  5
7
330
0
100
AcDbSymbolTable
 70
     0
  0
ENDTAB
  0
TABLE
  2
APPID
  5
9
330
0
100
AcDbSymbolTable
 70
     1
  0
APPID
  5
12
330
9
100
AcDbSymbolTableRecord
100
AcDbRegAppTableRecord
  2
ACAD
 70
     0
  0
ENDTAB
  0
TABLE
  2
DIMSTYLE
  5
A
330
0
100
AcDbSymbolTable
 70
     1
100
AcDbDimStyleTable
  0
DIMSTYLE
105
27
330
A
100
AcDbSymbolTableRecord
100
AcDbDimStyleTableRecord
  2
Standard
 70
     0
 41
2.5
 42
0.625
 43
3.75
 44
1.25
 73
     0
 74
     0
 77
     1
 78
     8
140
2.5
141
2.5
143
0.0394
147
0.625
172
     1
179
     2
271
     2
272
     2
273
     8
274
     4
277
     6
278
     0
340
11
  0
ENDTAB
  0
TABLE
  2
BLOCK_RECORD
  5
1
330
0
100
AcDbSymbolTable
 70
     1
  0
BLOCK_RECORD
  5
1F
330
1
100
AcDbSymbolTableRecord
100
AcDbBlockTableRecord
  2
*Model_Space
340
22
  0
BLOCK_RECORD
  5
73
330
1
100
AcDbSymbolTableRecord
100
AcDbBlockTableRecord
  2
*Paper_Space
340
37
  0
BLOCK_RECORD
  5
7B8
330
1
100
AcDbSymbolTableRecord
100
AcDbBlockTableRecord
  2
*Paper_Space0
340
74
  0
ENDTAB
  0
ENDSEC
  0
SECTION
  2
BLOCKS
  0
BLOCK
  5
20
330
1F
100
AcDbEntity
  8
0
100
AcDbBlockBegin
  2
*Model_Space
 70
     0
 10
0.0
 20
0.0
 30
0.0
  3
*Model_Space
  1

  0
ENDBLK
  5
21
330
1F
100
AcDbEntity
  8
0
100
AcDbBlockEnd
  0
BLOCK
  5
75
330
73
100
AcDbEntity
 67
     1
  8
0
100
AcDbBlockBegin
  2
*Paper_Space
 70
     0
 10
0.0
 20
0.0
 30
0.0
  3
*Paper_Space
  1

  0
ENDBLK
  5
76
330
73
100
AcDbEntity
 67
     1
  8
0
100
AcDbBlockEnd
  0
BLOCK
  5
7B9
330
7B8
100
AcDbEntity
  8
0
100
AcDbBlockBegin
  2
*Paper_Space0
 70
     0
 10
0.0
 20
0.0
 30
0.0
  3
*Paper_Space0
  1

  0
VIEWPORT
  5
3E
330
7B8
100
AcDbEntity
  8
0
100
AcDbViewport
 10
7.8
 20
4.5
 30
0.0
 40
15.64
 41
9.0
 68
     1
 69
     1
 12
6.0
 22
4.5
 13
0.0
 23
0.0
 14
0.5
 24
0.5
 15
0.5
 25
0.5
 16
0.0
 26
0.0
 36
1.0
 17
0.0
 27
0.0
 37
0.0
 42
50.0
 43
0.0
 44
0.0
 45
12.0
 50
0.0
 51
0.0
 72
   100
 90
   557152
  1

281
     0
 71
     1
 74
     0
110
0.0
120
0.0
130
0.0
111
1.0
121
0.0
131
0.0
112
0.0
122
1.0
132
0.0
 79
     0
146
0.0
  0
ENDBLK
  5
7BA
330
7B8
100
AcDbEntity
  8
0
100
AcDbBlockEnd
  0
ENDSEC
  0
SECTION
  2
ENTITIES
  0
LINE
  5
BF
330
1F
100
AcDbEntity
  8
dim
100
AcDbLine
 10
121.97
 20
168.87
 30
0.0
 11
96.66999999999999
 21
168.87
 31
0.0
  0
LINE
  5
C0
330
1F
100
AcDbEntity
  8
dim
100
AcDbLine
 10
96.66999999999999
 20
149.77
 30
0.0
 11
96.66999999999999
 21
168.87
 31
0.0
  0
LINE
  5
C1
330
1F
100
AcDbEntity
  8
dim
100
AcDbLine
 10
121.97
 20
171.07
 30
0.0
 11
121.97
 21
146.07
 31
0.0
  0
LINE
  5
C2
330
1F
100
AcDbEntity
  8
dim
100
AcDbLine
 10
79.45
 20
160.82
 30
0.0
 11
82.97
 21
160.82
 31
0.0
  0
TEXT
  5
C3
330
1F
100
AcDbEntity
  8
dim
100
AcDbText
 10
81.42
 20
146.47
 30
0.0
 40
2.0
  1
1
 50
90.0
  7
title1
100
AcDbText
  0
TEXT
  5
C4
330
1F
100
AcDbEntity
  8
dim
100
AcDbText
 10
81.42
 20
169.37
 30
0.0
 40
2.0
  1
2
 50
90.0
  7
title1
100
AcDbText
  0
LINE
  5
C5
330
1F
100
AcDbEntity
  8
dim
100
AcDbLine
 10
121.97
 20
168.87
 30
0.0
 11
145.77
 21
168.87
 31
0.0
  0
TEXT
  5
C6
330
1F
100
AcDbEntity
  8
dim
100
AcDbText
 10
89.41999999999999
 20
169.37
 30
0.0
 40
2.0
  1
4
 50
90.0
  7
title1
100
AcDbText
  0
TEXT
  5
C7
330
1F
100
AcDbEntity
  8
dim
100
AcDbText
 10
89.41999999999999
 20
146.47
 30
0.0
 40
2.0
  1
3
 50
90.0
  7
title1
100
AcDbText
  0
LWPOLYLINE
  5
C8
330
1F
100
AcDbEntity
  8
dim
100
AcDbPolyline
 90
        3
 70
     0
 43
0.0
 10
96.66999999999999
 20
168.87
 10
96.66999999999999
 20
148.27
 10
121.97
 20
148.27
  0
LINE
  5
C9
330
1F
100
AcDbEntity
  8
dim
100
AcDbLine
 10
166.97
 20
160.82
 30
0.0
 11
160.97
 21
160.82
 31
0.0
  0
LINE
  5
CA
330
1F
100
AcDbEntity
  8
dim
100
AcDbLine
 10
163.47
 20
157.82
 30
0.0
 11
163.47
 21
164.02
 31
0.0
  0
ARC
  5
CB
330
1F
100
AcDbEntity
  8
dim
100
AcDbCircle
 10
166.52
 20
157.77
 30
0.0
 40
0.5
100
AcDbArc
 50
270.0
 51
0.0
  0
LINE
  5
CC
330
1F
100
AcDbEntity
  8
dim
100
AcDbLine
 10
166.52
 20
157.27
 30
0.0
 11
160.42
 21
157.27
 31
0.0
  0
ARC
  5
CD
330
1F
100
AcDbEntity
  8
dim
100
AcDbCircle
 10
160.42
 20
157.77
 30
0.0
 40
0.5
100
AcDbArc
 50
180.0
 51
270.0
  0
LINE
  5
CE
330
1F
100
AcDbEntity
  8
dim
100
AcDbLine
 10
159.92
 20
157.77
 30
0.0
 11
159.92
 21
163.87
 31
0.0
  0
ARC
  5
CF
330
1F
100
AcDbEntity
  8
dim
100
AcDbCircle
 10
160.42
 20
163.87
 30
0.0
 40
0.5
100
AcDbArc
 50
90.0
 51
180.0
  0
LINE
  5
D0
330
1F
100
AcDbEntity
  8
dim
100
AcDbLine
 10
160.42
 20
164.37
 30
0.0
 11
166.52
 21
164.37
 31
0.0
  0
ARC
  5
D1
330
1F
100
AcDbEntity
  8
dim
100
AcDbCircle
 10
166.52
 20
163.87
 30
0.0
 40
0.5
100
AcDbArc
 50
0.0
 51
90.0
  0
LINE
  5
D2
330
1F
100
AcDbEntity
  8
dim
100
AcDbLine
 10
167.02
 20
163.87
 30
0.0
 11
167.02
 21
157.77
 31
0.0
  0
LINE
  5
D3
330
1F
100
AcDbEntity
  8
dim
100
AcDbLine
 10
167.02
 20
161.32
 30
0.0
 11
166.326571371
 21
161.32
 31
0.0
  0
LINE
  5
D4
330
1F
100
AcDbEntity
  8
dim
100
AcDbLine
 10
167.02
 20
160.32
 30
0.0
 11
166.326571371
 21
160.32
 31
0.0
  0
LINE
  5
D5
330
1F
100
AcDbEntity
  8
dim
100
AcDbLine
 10
160.613428629
 20
161.32
 30
0.0
 11
159.92
 21
161.32
 31
0.0
  0
LINE
  5
D6
330
1F
100
AcDbEntity
  8
dim
100
AcDbLine
 10
160.613428629
 20
160.32
 30
0.0
 11
159.92
 21
160.32
 31
0.0
  0
LINE
  5
D7
330
1F
100
AcDbEntity
  8
dim
100
AcDbLine
 10
163.97
 20
163.676571371
 30
0.0
 11
163.97
 21
164.37
 31
0.0
  0
LINE
  5
D8
330
1F
100
AcDbEntity
  8
dim
100
AcDbLine
 10
162.97
 20
163.676571371
 30
0.0
 11
162.97
 21
164.37
 31
0.0
  0
LINE
  5
D9
330
1F
100
AcDbEntity
  8
dim
100
AcDbLine
 10
163.97
 20
157.963428629
 30
0.0
 11
163.97
 21
157.27
 31
0.0
  0
LINE
  5
DA
330
1F
100
AcDbEntity
  8
dim
100
AcDbLine
 10
162.97
 20
157.963428629
 30
0.0
 11
162.97
 21
157.27
 31
0.0
  0
LINE
  5
DB
330
1F
100
AcDbEntity
  8
dim
100
AcDbLine
 10
166.97
 20
151.82
 30
0.0
 11
160.97
 21
151.82
 31
0.0
  0
LINE
  5
DC
330
1F
100
AcDbEntity
  8
dim
100
AcDbLine
 10
163.47
 20
148.82
 30
0.0
 11
163.47
 21
155.02
 31
0.0
  0
ARC
  5
DD
330
1F
100
AcDbEntity
  8
dim
100
AcDbCircle
 10
166.52
 20
148.77
 30
0.0
 40
0.5
100
AcDbArc
 50
270.0
 51
0.0
  0
LINE
  5
DE
330
1F
100
AcDbEntity
  8
dim
100
AcDbLine
 10
166.52
 20
148.27
 30
0.0
 11
160.42
 21
148.27
 31
0.0
  0
ARC
  5
DF
330
1F
100
AcDbEntity
  8
dim
100
AcDbCircle
 10
160.42
 20
148.77
 30
0.0
 40
0.5
100
AcDbArc
 50
180.0
 51
270.0
  0
LINE
  5
E0
330
1F
100
AcDbEntity
  8
dim
100
AcDbLine
 10
159.92
 20
148.77
 30
0.0
 11
159.92
 21
154.87
 31
0.0
  0
ARC
  5
E1
330
1F
100
AcDbEntity
  8
dim
100
AcDbCircle
 10
160.42
 20
154.87
 30
0.0
 40
0.5
100
AcDbArc
 50
90.0
 51
180.0
  0
LINE
  5
E2
330
1F
100
AcDbEntity
  8
dim
100
AcDbLine
 10
160.42
 20
155.37
 30
0.0
 11
166.52
 21
155.37
 31
0.0
  0
ARC
  5
E3
330
1F
100
AcDbEntity
  8
dim
100
AcDbCircle
 10
166.52
 20
154.87
 30
0.0
 40
0.5
100
AcDbArc
 50
0.0
 51
90.0
  0
LINE
  5
E4
330
1F
100
AcDbEntity
  8
dim
100
AcDbLine
 10
167.02
 20
154.87
 30
0.0
 11
167.02
 21
148.77
 31
0.0
  0
LINE
  5
E5
330
1F
100
AcDbEntity
  8
dim
100
AcDbLine
 10
167.02
 20
152.32
 30
0.0
 11
166.326571371
 21
152.32
 31
0.0
  0
LINE
  5
E6
330
1F
100
AcDbEntity
  8
dim
100
AcDbLine
 10
167.02
 20
151.32
 30
0.0
 11
166.326571371
 21
151.32
 31
0.0
  0
LINE
  5
E7
330
1F
100
AcDbEntity
  8
dim
100
AcDbLine
 10
160.613428629
 20
152.32
 30
0.0
 11
159.92
 21
152.32
 31
0.0
  0
LINE
  5
E8
330
1F
100
AcDbEntity
  8
dim
100
AcDbLine
 10
160.613428629
 20
151.32
 30
0.0
 11
159.92
 21
151.32
 31
0.0
  0
LINE
  5
E9
330
1F
100
AcDbEntity
  8
dim
100
AcDbLine
 10
163.97
 20
154.676571371
 30
0.0
 11
163.97
 21
155.37
 31
0.0
  0
LINE
  5
EA
330
1F
100
AcDbEntity
  8
dim
100
AcDbLine
 10
162.97
 20
154.676571371
 30
0.0
 11
162.97
 21
155.37
 31
0.0
  0
LINE
  5
EB
330
1F
100
AcDbEntity
  8
dim
100
AcDbLine
 10
163.97
 20
148.963428629
 30
0.0
 11
163.97
 21
148.27
 31
0.0
  0
LINE
  5
EC
330
1F
100
AcDbEntity
  8
dim
100
AcDbLine
 10
162.97
 20
148.963428629
 30
0.0
 11
162.97
 21
148.27
 31
0.0
  0
LINE
  5
ED
330
1F
100
AcDbEntity
  8
dim
100
AcDbLine
 10
156.97
 20
165.32
 30
0.0
 11
150.97
 21
165.32
 31
0.0
  0
LINE
  5
EE
330
1F
100
AcDbEntity
  8
dim
100
AcDbLine
 10
153.47
 20
162.32
 30
0.0
 11
153.47
 21
168.52
 31
0.0
  0
ARC
  5
EF
330
1F
100
AcDbEntity
  8
dim
100
AcDbCircle
 10
156.52
 20
162.27
 30
0.0
 40
0.5
100
AcDbArc
 50
270.0
 51
0.0
  0
LINE
  5
F0
330
1F
100
AcDbEntity
  8
dim
100
AcDbLine
 10
156.52
 20
161.77
 30
0.0
 11
150.42
 21
161.77
 31
0.0
  0
ARC
  5
F1
330
1F
100
AcDbEntity
  8
dim
100
AcDbCircle
 10
150.42
 20
162.27
 30
0.0
 40
0.5
100
AcDbArc
 50
180.0
 51
270.0
  0
LINE
  5
F2
330
1F
100
AcDbEntity
  8
dim
100
AcDbLine
 10
150.42
 20
168.87
 30
0.0
 11
156.52
 21
168.87
 31
0.0
  0
ARC
  5
F3
330
1F
100
AcDbEntity
  8
dim
100
AcDbCircle
 10
156.52
 20
168.37
 30
0.0
 40
0.5
100
AcDbArc
 50
0.0
 51
90.0
  0
LINE
  5
F4
330
1F
100
AcDbEntity
  8
dim
100
AcDbLine
 10
157.02
 20
168.37
 30
0.0
 11
157.02
 21
162.27
 31
0.0
  0
LINE
  5
F5
330
1F
100
AcDbEntity
  8
dim
100
AcDbLine
 10
157.02
 20
165.82
 30
0.0
 11
156.326571371
 21
165.82
 31
0.0
  0
LINE
  5
F6
330
1F
100
AcDbEntity
  8
dim
100
AcDbLine
 10
157.02
 20
164.82
 30
0.0
 11
156.326571371
 21
164.82
 31
0.0
  0
LINE
  5
F7
330
1F
100
AcDbEntity
  8
dim
100
AcDbLine
 10
150.613428629
 20
165.82
 30
0.0
 11
149.92
 21
165.82
 31
0.0
  0
LINE
  5
F8
330
1F
100
AcDbEntity
  8
dim
100
AcDbLine
 10
150.613428629
 20
164.82
 30
0.0
 11
149.92
 21
164.82
 31
0.0
  0
LINE
  5
F9
330
1F
100
AcDbEntity
  8
dim
100
AcDbLine
 10
153.97
 20
168.176571371
 30
0.0
 11
153.97
 21
168.87
 31
0.0
  0
LINE
  5
FA
330
1F
100
AcDbEntity
  8
dim
100
AcDbLine
 10
152.97
 20
168.176571371
 30
0.0
 11
152.97
 21
168.87
 31
0.0
  0
LINE
  5
FB
330
1F
100
AcDbEntity
  8
dim
100
AcDbLine
 10
153.97
 20
162.463428629
 30
0.0
 11
153.97
 21
161.77
 31
0.0
  0
LINE
  5
FC
330
1F
100
AcDbEntity
  8
dim
100
AcDbLine
 10
152.97
 20
162.463428629
 30
0.0
 11
152.97
 21
161.77
 31
0.0
  0
LINE
  5
FD
330
1F
100
AcDbEntity
  8
dim
100
AcDbLine
 10
156.97
 20
156.32
 30
0.0
 11
150.97
 21
156.32
 31
0.0
  0
LINE
  5
FE
330
1F
100
AcDbEntity
  8
dim
100
AcDbLine
 10
153.47
 20
153.32
 30
0.0
 11
153.47
 21
159.52
 31
0.0
  0
ARC
  5
FF
330
1F
100
AcDbEntity
  8
dim
100
AcDbCircle
 10
156.52
 20
153.27
 30
0.0
 40
0.5
100
AcDbArc
 50
270.0
 51
0.0
  0
LINE
  5
100
330
1F
100
AcDbEntity
  8
dim
100
AcDbLine
 10
156.52
 20
152.77
 30
0.0
 11
150.42
 21
152.77
 31
0.0
  0
ARC
  5
101
330
1F
100
AcDbEntity
  8
dim
100
AcDbCircle
 10
150.42
 20
153.27
 30
0.0
 40
0.5
100
AcDbArc
 50
180.0
 51
270.0
  0
LINE
  5
102
330
1F
100
AcDbEntity
  8
dim
100
AcDbLine
 10
149.92
 20
153.27
 30
0.0
 11
149.92
 21
159.37
 31
0.0
  0
ARC
  5
103
330
1F
100
AcDbEntity
  8
dim
100
AcDbCircle
 10
150.42
 20
159.37
 30
0.0
 40
0.5
100
AcDbArc
 50
90.0
 51
180.0
  0
LINE
  5
104
330
1F
100
AcDbEntity
  8
dim
100
AcDbLine
 10
150.42
 20
159.87
 30
0.0
 11
156.52
 21
159.87
 31
0.0
  0
ARC
  5
105
330
1F
100
AcDbEntity
  8
dim
100
AcDbCircle
 10
156.52
 20
159.37
 30
0.0
 40
0.5
100
AcDbArc
 50
0.0
 51
90.0
  0
LINE
  5
106
330
1F
100
AcDbEntity
  8
dim
100
AcDbLine
 10
157.02
 20
159.37
 30
0.0
 11
157.02
 21
153.27
 31
0.0
  0
LINE
  5
107
330
1F
100
AcDbEntity
  8
dim
100
AcDbLine
 10
157.02
 20
156.82
 30
0.0
 11
156.326571371
 21
156.82
 31
0.0
  0
LINE
  5
108
330
1F
100
AcDbEntity
  8
dim
100
AcDbLine
 10
157.02
 20
155.82
 30
0.0
 11
156.326571371
 21
155.82
 31
0.0
  0
LINE
  5
109
330
1F
100
AcDbEntity
  8
dim
100
AcDbLine
 10
150.613428629
 20
156.82
 30
0.0
 11
149.92
 21
156.82
 31
0.0
  0
LINE
  5
10A
330
1F
100
AcDbEntity
  8
dim
100
AcDbLine
 10
150.613428629
 20
155.82
 30
0.0
 11
149.92
 21
155.82
 31
0.0
  0
LINE
  5
10B
330
1F
100
AcDbEntity
  8
dim
100
AcDbLine
 10
153.97
 20
159.176571371
 30
0.0
 11
153.97
 21
159.87
 31
0.0
  0
LINE
  5
10C
330
1F
100
AcDbEntity
  8
dim
100
AcDbLine
 10
152.97
 20
159.176571371
 30
0.0
 11
152.97
 21
159.87
 31
0.0
  0
LINE
  5
10D
330
1F
100
AcDbEntity
  8
dim
100
AcDbLine
 10
153.97
 20
153.463428629
 30
0.0
 11
153.97
 21
152.77
 31
0.0
  0
LINE
  5
10E
330
1F
100
AcDbEntity
  8
dim
100
AcDbLine
 10
152.97
 20
153.463428629
 30
0.0
 11
152.97
 21
152.77
 31
0.0
  0
LINE
  5
10F
330
1F
100
AcDbEntity
  8
dim
100
AcDbLine
 10
76.97
 20
160.82
 30
0.0
 11
82.97
 21
160.82
 31
0.0
  0
LINE
  5
110
330
1F
100
AcDbEntity
  8
dim
100
AcDbLine
 10
80.47
 20
157.82
 30
0.0
 11
80.47
 21
164.02
 31
0.0
  0
ARC
  5
111
330
1F
100
AcDbEntity
  8
dim
100
AcDbCircle
 10
77.42
 20
157.77
 30
0.0
 40
0.5
100
AcDbArc
 50
180.0
 51
270.0
  0
LINE
  5
112
330
1F
100
AcDbEntity
  8
dim
100
AcDbLine
 10
77.42
 20
157.27
 30
0.0
 11
83.52000000000001
 21
157.27
 31
0.0
  0
ARC
  5
113
330
1F
100
AcDbEntity
  8
dim
100
AcDbCircle
 10
83.52000000000001
 20
157.77
 30
0.0
 40
0.5
100
AcDbArc
 50
270.0
 51
0.0
  0
LINE
  5
114
330
1F
100
AcDbEntity
  8
dim
100
AcDbLine
 10
84.02000000000001
 20
157.77
 30
0.0
 11
84.02000000000001
 21
163.87
 31
0.0
  0
ARC
  5
115
330
1F
100
AcDbEntity
  8
dim
100
AcDbCircle
 10
83.52000000000001
 20
163.87
 30
0.0
 40
0.5
100
AcDbArc
 50
0.0
 51
90.0
  0
LINE
  5
116
330
1F
100
AcDbEntity
  8
dim
100
AcDbLine
 10
83.52000000000001
 20
164.37
 30
0.0
 11
77.42
 21
164.37
 31
0.0
  0
ARC
  5
117
330
1F
100
AcDbEntity
  8
dim
100
AcDbCircle
 10
77.42
 20
163.87
 30
0.0
 40
0.5
100
AcDbArc
 50
90.0
 51
180.0
  0
LINE
  5
118
330
1F
100
AcDbEntity
  8
dim
100
AcDbLine
 10
76.92
 20
163.87
 30
0.0
 11
76.92
 21
157.77
 31
0.0
  0
LINE
  5
119
330
1F
100
AcDbEntity
  8
dim
100
AcDbLine
 10
76.92
 20
161.32
 30
0.0
 11
77.613428629
 21
161.32
 31
0.0
  0
LINE
  5
11A
330
1F
100
AcDbEntity
  8
dim
100
AcDbLine
 10
76.92
 20
160.32
 30
0.0
 11
77.613428629
 21
160.32
 31
0.0
  0
LINE
  5
11B
330
1F
100
AcDbEntity
  8
dim
100
AcDbLine
 10
83.326571371
 20
161.32
 30
0.0
 11
84.02000000000001
 21
161.32
 31
0.0
  0
LINE
  5
11C
330
1F
100
AcDbEntity
  8
dim
100
AcDbLine
 10
83.326571371
 20
160.32
 30
0.0
 11
84.02000000000001
 21
160.32
 31
0.0
  0
LINE
  5
11D
330
1F
100
AcDbEntity
  8
dim
100
AcDbLine
 10
79.97
 20
163.676571371
 30
0.0
 11
79.97
 21
164.37
 31
0.0
  0
LINE
  5
11E
330
1F
100
AcDbEntity
  8
dim
100
AcDbLine
 10
80.97
 20
163.676571371
 30
0.0
 11
80.97
 21
164.37
 31
0.0
  0
LINE
  5
11F
330
1F
100
AcDbEntity
  8
dim
100
AcDbLine
 10
79.97
 20
157.963428629
 30
0.0
 11
79.97
 21
157.27
 31
0.0
  0
LINE
  5
120
330
1F
100
AcDbEntity
  8
dim
100
AcDbLine
 10
80.97
 20
157.963428629
 30
0.0
 11
80.97
 21
157.27
 31
0.0
  0
LINE
  5
121
330
1F
100
AcDbEntity
  8
dim
100
AcDbLine
 10
89.44999999999999
 20
165.32
 30
0.0
 11
92.97
 21
165.32
 31
0.0
  0
LINE
  5
122
330
1F
100
AcDbEntity
  8
dim
100
AcDbLine
 10
86.97
 20
165.32
 30
0.0
 11
92.97
 21
165.32
 31
0.0
  0
LINE
  5
123
330
1F
100
AcDbEntity
  8
dim
100
AcDbLine
 10
90.47
 20
162.32
 30
0.0
 11
90.47
 21
168.52
 31
0.0
  0
ARC
  5
124
330
1F
100
AcDbEntity
  8
dim
100
AcDbCircle
 10
87.41999999999999
 20
162.27
 30
0.0
 40
0.5
100
AcDbArc
 50
180.0
 51
270.0
  0
LINE
  5
125
330
1F
100
AcDbEntity
  8
dim
100
AcDbLine
 10
87.41999999999999
 20
161.77
 30
0.0
 11
93.52000000000001
 21
161.77
 31
0.0
  0
ARC
  5
126
330
1F
100
AcDbEntity
  8
dim
100
AcDbCircle
 10
93.52000000000001
 20
162.27
 30
0.0
 40
0.5
100
AcDbArc
 50
270.0
 51
0.0
  0
LINE
  5
127
330
1F
100
AcDbEntity
  8
dim
100
AcDbLine
 10
93.52000000000001
 20
168.87
 30
0.0
 11
87.41999999999999
 21
168.87
 31
0.0
  0
ARC
  5
128
330
1F
100
AcDbEntity
  8
dim
100
AcDbCircle
 10
87.41999999999999
 20
168.37
 30
0.0
 40
0.5
100
AcDbArc
 50
90.0
 51
180.0
  0
LINE
  5
129
330
1F
100
AcDbEntity
  8
dim
100
AcDbLine
 10
86.91999999999999
 20
168.37
 30
0.0
 11
86.91999999999999
 21
162.27
 31
0.0
  0
LINE
  5
12A
330
1F
100
AcDbEntity
  8
dim
100
AcDbLine
 10
86.91999999999999
 20
165.82
 30
0.0
 11
87.613428629
 21
165.82
 31
0.0
  0
LINE
  5
12B
330
1F
100
AcDbEntity
  8
dim
100
AcDbLine
 10
86.91999999999999
 20
164.82
 30
0.0
 11
87.613428629
 21
164.82
 31
0.0
  0
LINE
  5
12C
330
1F
100
AcDbEntity
  8
dim
100
AcDbLine
 10
93.326571371
 20
165.82
 30
0.0
 11
94.02000000000001
 21
165.82
 31
0.0
  0
LINE
  5
12D
330
1F
100
AcDbEntity
  8
dim
100
AcDbLine
 10
93.326571371
 20
164.82
 30
0.0
 11
94.02000000000001
 21
164.82
 31
0.0
  0
LINE
  5
12E
330
1F
100
AcDbEntity
  8
dim
100
AcDbLine
 10
89.97
 20
168.176571371
 30
0.0
 11
89.97
 21
168.87
 31
0.0
  0
LINE
  5
12F
330
1F
100
AcDbEntity
  8
dim
100
AcDbLine
 10
90.97
 20
168.176571371
 30
0.0
 11
90.97
 21
168.87
 31
0.0
  0
LINE
  5
130
330
1F
100
AcDbEntity
  8
dim
100
AcDbLine
 10
89.97
 20
162.463428629
 30
0.0
 11
89.97
 21
161.77
 31
0.0
  0
LINE
  5
131
330
1F
100
AcDbEntity
  8
dim
100
AcDbLine
 10
90.97
 20
162.463428629
 30
0.0
 11
90.97
 21
161.77
 31
0.0
  0
LINE
  5
132
330
1F
100
AcDbEntity
  8
dim
100
AcDbLine
 10
79.45
 20
151.82
 30
0.0
 11
82.97
 21
151.82
 31
0.0
  0
LINE
  5
133
330
1F
100
AcDbEntity
  8
dim
100
AcDbLine
 10
76.97
 20
151.82
 30
0.0
 11
82.97
 21
151.82
 31
0.0
  0
LINE
  5
134
330
1F
100
AcDbEntity
  8
dim
100
AcDbLine
 10
80.47
 20
148.82
 30
0.0
 11
80.47
 21
155.02
 31
0.0
  0
ARC
  5
135
330
1F
100
AcDbEntity
  8
dim
100
AcDbCircle
 10
77.42
 20
148.77
 30
0.0
 40
0.5
100
AcDbArc
 50
180.0
 51
270.0
  0
LINE
  5
136
330
1F
100
AcDbEntity
  8
dim
100
AcDbLine
 10
77.42
 20
148.27
 30
0.0
 11
83.52000000000001
 21
148.27
 31
0.0
  0
ARC
  5
137
330
1F
100
AcDbEntity
  8
dim
100
AcDbCircle
 10
83.52000000000001
 20
148.77
 30
0.0
 40
0.5
100
AcDbArc
 50
270.0
 51
0.0
  0
LINE
  5
138
330
1F
100
AcDbEntity
  8
dim
100
AcDbLine
 10
84.02000000000001
 20
148.77
 30
0.0
 11
84.02000000000001
 21
154.87
 31
0.0
  0
ARC
  5
139
330
1F
100
AcDbEntity
  8
dim
100
AcDbCircle
 10
83.52000000000001
 20
154.87
 30
0.0
 40
0.5
100
AcDbArc
 50
0.0
 51
90.0
  0
LINE
  5
13A
330
1F
100
AcDbEntity
  8
dim
100
AcDbLine
 10
83.52000000000001
 20
155.37
 30
0.0
 11
77.42
 21
155.37
 31
0.0
  0
ARC
  5
13B
330
1F
100
AcDbEntity
  8
dim
100
AcDbCircle
 10
77.42
 20
154.87
 30
0.0
 40
0.5
100
AcDbArc
 50
90.0
 51
180.0
  0
LINE
  5
13C
330
1F
100
AcDbEntity
  8
dim
100
AcDbLine
 10
76.92
 20
154.87
 30
0.0
 11
76.92
 21
148.77
 31
0.0
  0
LINE
  5
13D
330
1F
100
AcDbEntity
  8
dim
100
AcDbLine
 10
76.92
 20
152.32
 30
0.0
 11
77.613428629
 21
152.32
 31
0.0
  0
LINE
  5
13E
330
1F
100
AcDbEntity
  8
dim
100
AcDbLine
 10
76.92
 20
151.32
 30
0.0
 11
77.613428629
 21
151.32
 31
0.0
  0
LINE
  5
13F
330
1F
100
AcDbEntity
  8
dim
100
AcDbLine
 10
83.326571371
 20
152.32
 30
0.0
 11
84.02000000000001
 21
152.32
 31
0.0
  0
LINE
  5
140
330
1F
100
AcDbEntity
  8
dim
100
AcDbLine
 10
83.326571371
 20
151.32
 30
0.0
 11
84.02000000000001
 21
151.32
 31
0.0
  0
LINE
  5
141
330
1F
100
AcDbEntity
  8
dim
100
AcDbLine
 10
79.97
 20
154.676571371
 30
0.0
 11
79.97
 21
155.37
 31
0.0
  0
LINE
  5
142
330
1F
100
AcDbEntity
  8
dim
100
AcDbLine
 10
80.97
 20
154.676571371
 30
0.0
 11
80.97
 21
155.37
 31
0.0
  0
LINE
  5
143
330
1F
100
AcDbEntity
  8
dim
100
AcDbLine
 10
79.97
 20
148.963428629
 30
0.0
 11
79.97
 21
148.27
 31
0.0
  0
LINE
  5
144
330
1F
100
AcDbEntity
  8
dim
100
AcDbLine
 10
80.97
 20
148.963428629
 30
0.0
 11
80.97
 21
148.27
 31
0.0
  0
LINE
  5
145
330
1F
100
AcDbEntity
  8
dim
100
AcDbLine
 10
89.44999999999999
 20
156.32
 30
0.0
 11
92.97
 21
156.32
 31
0.0
  0
LINE
  5
146
330
1F
100
AcDbEntity
  8
dim
100
AcDbLine
 10
86.97
 20
156.32
 30
0.0
 11
92.97
 21
156.32
 31
0.0
  0
LINE
  5
147
330
1F
100
AcDbEntity
  8
dim
100
AcDbLine
 10
90.47
 20
153.32
 30
0.0
 11
90.47
 21
159.52
 31
0.0
  0
ARC
  5
148
330
1F
100
AcDbEntity
  8
dim
100
AcDbCircle
 10
87.41999999999999
 20
153.27
 30
0.0
 40
0.5
100
AcDbArc
 50
180.0
 51
270.0
  0
LINE
  5
149
330
1F
100
AcDbEntity
  8
dim
100
AcDbLine
 10
87.41999999999999
 20
152.77
 30
0.0
 11
93.52000000000001
 21
152.77
 31
0.0
  0
ARC
  5
14A
330
1F
100
AcDbEntity
  8
dim
100
AcDbCircle
 10
93.52000000000001
 20
153.27
 30
0.0
 40
0.5
100
AcDbArc
 50
270.0
 51
0.0
  0
LINE
  5
14B
330
1F
100
AcDbEntity
  8
dim
100
AcDbLine
 10
94.02000000000001
 20
153.27
 30
0.0
 11
94.02000000000001
 21
159.37
 31
0.0
  0
ARC
  5
14C
330
1F
100
AcDbEntity
  8
dim
100
AcDbCircle
 10
93.52000000000001
 20
159.37
 30
0.0
 40
0.5
100
AcDbArc
 50
0.0
 51
90.0
  0
LINE
  5
14D
330
1F
100
AcDbEntity
  8
dim
100
AcDbLine
 10
93.52000000000001
 20
159.87
 30
0.0
 11
87.41999999999999
 21
159.87
 31
0.0
  0
ARC
  5
14E
330
1F
100
AcDbEntity
  8
dim
100
AcDbCircle
 10
87.41999999999999
 20
159.37
 30
0.0
 40
0.5
100
AcDbArc
 50
90.0
 51
180.0
  0
LINE
  5
14F
330
1F
100
AcDbEntity
  8
dim
100
AcDbLine
 10
86.91999999999999
 20
159.37
 30
0.0
 11
86.91999999999999
 21
153.27
 31
0.0
  0
LINE
  5
150
330
1F
100
AcDbEntity
  8
dim
100
AcDbLine
 10
86.91999999999999
 20
156.82
 30
0.0
 11
87.613428629
 21
156.82
 31
0.0
  0
LINE
  5
151
330
1F
100
AcDbEntity
  8
dim
100
AcDbLine
 10
86.91999999999999
 20
155.82
 30
0.0
 11
87.613428629
 21
155.82
 31
0.0
  0
LINE
  5
152
330
1F
100
AcDbEntity
  8
dim
100
AcDbLine
 10
93.326571371
 20
156.82
 30
0.0
 11
94.02000000000001
 21
156.82
 31
0.0
  0
LINE
  5
153
330
1F
100
AcDbEntity
  8
dim
100
AcDbLine
 10
93.326571371
 20
155.82
 30
0.0
 11
94.02000000000001
 21
155.82
 31
0.0
  0
LINE
  5
154
330
1F
100
AcDbEntity
  8
dim
100
AcDbLine
 10
89.97
 20
159.176571371
 30
0.0
 11
89.97
 21
159.87
 31
0.0
  0
LINE
  5
155
330
1F
100
AcDbEntity
  8
dim
100
AcDbLine
 10
90.97
 20
159.176571371
 30
0.0
 11
90.97
 21
159.87
 31
0.0
  0
LINE
  5
156
330
1F
100
AcDbEntity
  8
dim
100
AcDbLine
 10
89.97
 20
153.463428629
 30
0.0
 11
89.97
 21
152.77
 31
0.0
  0
LINE
  5
157
330
1F
100
AcDbEntity
  8
dim
100
AcDbLine
 10
90.97
 20
153.463428629
 30
0.0
 11
90.97
 21
152.77
 31
0.0
  0
LINE
  5
158
330
1F
100
AcDbEntity
  8
dim
100
AcDbLine
 10
163.47
 20
164.52
 30
0.0
 11
163.47
 21
169.02
 31
0.0
  0
LINE
  5
159
330
1F
100
AcDbEntity
  8
dim
100
AcDbLine
 10
80.47
 20
164.52
 30
0.0
 11
80.47
 21
168.97
 31
0.0
  0
LINE
  5
15A
330
1F
100
AcDbEntity
  8
dim
100
AcDbLine
 10
139.97
 20
73.302250994
 30
0.0
 11
139.57
 21
77.802250994
 31
0.0
  0
LINE
  5
15B
330
1F
100
AcDbEntity
  8
dim
100
AcDbLine
 10
139.57
 20
77.802250994
 30
0.0
 11
121.97
 21
77.802250994
 31
0.0
  0
LINE
  5
15C
330
1F
100
AcDbEntity
  8
dim
100
AcDbLine
 10
103.97
 20
73.302250994
 30
0.0
 11
104.37
 21
77.802250994
 31
0.0
  0
LINE
  5
15D
330
1F
100
AcDbEntity
  8
dim
100
AcDbLine
 10
104.37
 20
77.802250994
 30
0.0
 11
121.97
 21
77.802250994
 31
0.0
  0
LINE
  5
15E
330
1F
100
AcDbEntity
  8
dim
100
AcDbLine
 10
139.97
 20
73.302250994
 30
0.0
 11
168.97
 21
73.302250994
 31
0.0
  0
LINE
  5
15F
330
1F
100
AcDbEntity
  8
dim
100
AcDbLine
 10
74.97
 20
73.302250994
 30
0.0
 11
103.97
 21
73.302250994
 31
0.0
  0
LINE
  5
160
330
1F
100
AcDbEntity
  8
dim
100
AcDbLine
 10
150.47
 20
75.302250994
 30
0.0
 11
148.22
 21
75.302250994
 31
0.0
  0
LINE
  5
161
330
1F
100
AcDbEntity
  8
dim
100
AcDbLine
 10
150.47
 20
75.302250994
 30
0.0
 11
152.72
 21
75.302250994
 31
0.0
  0
ARC
  5
162
330
1F
100
AcDbEntity
  8
dim
100
AcDbCircle
 10
167.874510944
 20
97.60225099400002
 30
0.0
 40
1.000000000000009
100
AcDbArc
 50
0.2251296059996115
 51
89.9999999999996
  0
LINE
  5
163
330
1F
100
AcDbEntity
  8
dim
100
AcDbLine
 10
95.72
 20
77.802250994
 30
0.0
 11
93.47
 21
77.802250994
 31
0.0
  0
LINE
  5
164
330
1F
100
AcDbEntity
  8
dim
100
AcDbLine
 10
91.22
 20
77.802250994
 30
0.0
 11
93.47
 21
77.802250994
 31
0.0
  0
LWPOLYLINE
  5
165
330
1F
100
AcDbEntity
  8
dim
100
AcDbPolyline
 90
        3
 70
     0
 43
0.0
 10
152.72
 20
75.302250994
 10
152.72
 20
77.802250994
 10
150.47
 20
77.802250994
  0
LINE
  5
166
330
1F
100
AcDbEntity
  8
dim
100
AcDbLine
 10
148.22
 20
77.802250994
 30
0.0
 11
150.47
 21
77.802250994
 31
0.0
  0
LINE
  5
167
330
1F
100
AcDbEntity
  8
dim
100
AcDbLine
 10
148.22
 20
75.302250994
 30
0.0
 11
148.22
 21
77.802250994
 31
0.0
  0
LINE
  5
168
330
1F
100
AcDbEntity
  8
dim
100
AcDbLine
 10
95.72
 20
75.302250994
 30
0.0
 11
95.72
 21
77.802250994
 31
0.0
  0
LINE
  5
169
330
1F
100
AcDbEntity
  8
dim
100
AcDbLine
 10
93.47
 20
75.302250994
 30
0.0
 11
95.72
 21
75.302250994
 31
0.0
  0
LINE
  5
16A
330
1F
100
AcDbEntity
  8
dim
100
AcDbLine
 10
91.22
 20
75.302250994
 30
0.0
 11
91.22
 21
77.802250994
 31
0.0
  0
LINE
  5
16B
330
1F
100
AcDbEntity
  8
dim
100
AcDbLine
 10
93.47
 20
75.302250994
 30
0.0
 11
91.22
 21
75.302250994
 31
0.0
  0
LINE
  5
16C
330
1F
100
AcDbEntity
  8
dim
100
AcDbLine
 10
168.874503225
 20
97.606180237
 30
0.0
 11
168.97
 21
73.302250994
 31
0.0
  0
ARC
  5
16D
330
1F
100
AcDbEntity
  8
dim
100
AcDbCircle
 10
76.078259193
 20
97.60225099400002
 30
0.0
 40
1.0
100
AcDbArc
 50
90.0
 51
179.774870394
  0
LINE
  5
16E
330
1F
100
AcDbEntity
  8
dim
100
AcDbLine
 10
75.065496775
 20
97.606180237
 30
0.0
 11
74.97
 21
73.302250994
 31
0.0
  0
LINE
  5
16F
330
1F
100
AcDbEntity
  8
dim
100
AcDbLine
 10
153.96976832
 20
114.102250994
 30
0.0
 11
158.07763314
 21
114.102250994
 31
0.0
  0
LINE
  5
170
330
1F
100
AcDbEntity
  8
dim
100
AcDbLine
 10
147.47
 20
14.15000000000002
 30
0.0
 11
146.45
 21
14.15000000000002
 31
0.0
  0
LINE
  5
171
330
1F
100
AcDbEntity
  8
dim
100
AcDbLine
 10
97.49000000000001
 20
39.15000000000002
 30
0.0
 11
96.47
 21
39.15000000000002
 31
0.0
  0
LINE
  5
172
330
1F
100
AcDbEntity
  8
dim
100
AcDbLine
 10
96.47
 20
14.15000000000002
 30
0.0
 11
97.49000000000001
 21
14.15000000000002
 31
0.0
  0
LINE
  5
173
330
1F
100
AcDbEntity
  8
dim
100
AcDbLine
 10
121.97
 20
37.65000000000002
 30
0.0
 11
96.47
 21
37.65000000000002
 31
0.0
  0
LINE
  5
174
330
1F
100
AcDbEntity
  8
dim
100
AcDbLine
 10
75.97
 20
37.65000000000002
 30
0.0
 11
75.97
 21
26.65000000000002
 31
0.0
  0
LINE
  5
175
330
1F
100
AcDbEntity
  8
dim
100
AcDbLine
 10
75.97
 20
37.65000000000002
 30
0.0
 11
96.47
 21
37.65000000000002
 31
0.0
  0
LINE
  5
176
330
1F
100
AcDbEntity
  8
dim
100
AcDbLine
 10
121.97
 20
15.65000000000002
 30
0.0
 11
96.47
 21
15.65000000000002
 31
0.0
  0
LINE
  5
177
330
1F
100
AcDbEntity
  8
dim
100
AcDbLine
 10
75.97
 20
15.65000000000002
 30
0.0
 11
96.47
 21
15.65000000000002
 31
0.0
  0
LINE
  5
178
330
1F
100
AcDbEntity
  8
dim
100
AcDbLine
 10
75.97
 20
15.65000000000002
 30
0.0
 11
75.97
 21
26.65000000000002
 31
0.0
  0
LINE
  5
179
330
1F
100
AcDbEntity
  8
dim
100
AcDbLine
 10
123.97
 20
15.65000000000002
 30
0.0
 11
123.97
 21
15.95000000000002
 31
0.0
  0
LINE
  5
17A
330
1F
100
AcDbEntity
  8
dim
100
AcDbLine
 10
123.97
 20
15.95000000000002
 30
0.0
 11
119.97
 21
15.95000000000002
 31
0.0
  0
LINE
  5
17B
330
1F
100
AcDbEntity
  8
dim
100
AcDbLine
 10
119.97
 20
15.95000000000002
 30
0.0
 11
119.97
 21
15.65000000000002
 31
0.0
  0
LINE
  5
17C
330
1F
100
AcDbEntity
  8
dim
100
AcDbLine
 10
104.37
 20
37.65000000000002
 30
0.0
 11
104.37
 21
39.15000000000002
 31
0.0
  0
LINE
  5
17D
330
1F
100
AcDbEntity
  8
dim
100
AcDbLine
 10
103.97
 20
37.65000000000002
 30
0.0
 11
103.97
 21
39.15000000000002
 31
0.0
  0
LINE
  5
17E
330
1F
100
AcDbEntity
  8
dim
100
AcDbLine
 10
103.97
 20
15.65000000000002
 30
0.0
 11
103.97
 21
14.15000000000002
 31
0.0
  0
LINE
  5
17F
330
1F
100
AcDbEntity
  8
dim
100
AcDbLine
 10
104.37
 20
15.65000000000002
 30
0.0
 11
104.37
 21
14.15000000000002
 31
0.0
  0
LINE
  5
180
330
1F
100
AcDbEntity
  8
dim
100
AcDbLine
 10
139.57
 20
37.65000000000002
 30
0.0
 11
139.57
 21
39.15000000000002
 31
0.0
  0
LINE
  5
181
330
1F
100
AcDbEntity
  8
dim
100
AcDbLine
 10
139.97
 20
37.65000000000002
 30
0.0
 11
139.97
 21
39.15000000000002
 31
0.0
  0
LINE
  5
182
330
1F
100
AcDbEntity
  8
dim
100
AcDbLine
 10
139.97
 20
15.65000000000002
 30
0.0
 11
139.97
 21
14.15000000000002
 31
0.0
  0
LINE
  5
183
330
1F
100
AcDbEntity
  8
dim
100
AcDbLine
 10
139.57
 20
15.65000000000002
 30
0.0
 11
139.57
 21
14.15000000000002
 31
0.0
  0
LINE
  5
184
330
1F
100
AcDbEntity
  8
dim
100
AcDbLine
 10
121.97
 20
37.65000000000002
 30
0.0
 11
167.97
 21
37.65000000000002
 31
0.0
  0
LINE
  5
185
330
1F
100
AcDbEntity
  8
dim
100
AcDbLine
 10
146.45
 20
39.15000000000002
 30
0.0
 11
148.2
 21
39.15000000000002
 31
0.0
  0
LINE
  5
186
330
1F
100
AcDbEntity
  8
dim
100
AcDbLine
 10
121.97
 20
15.65000000000002
 30
0.0
 11
167.97
 21
15.65000000000002
 31
0.0
  0
LINE
  5
187
330
1F
100
AcDbEntity
  8
dim
100
AcDbLine
 10
168.97
 20
32.40000000000002
 30
0.0
 11
167.97
 21
32.40000000000002
 31
0.0
  0
LINE
  5
188
330
1F
100
AcDbEntity
  8
dim
100
AcDbLine
 10
168.97
 20
20.90000000000002
 30
0.0
 11
167.97
 21
20.90000000000002
 31
0.0
  0
LINE
  5
189
330
1F
100
AcDbEntity
  8
dim
100
AcDbLine
 10
152.72
 20
38.15000000000002
 30
0.0
 11
148.22
 21
38.15000000000002
 31
0.0
  0
LINE
  5
18A
330
1F
100
AcDbEntity
  8
dim
100
AcDbLine
 10
148.22
 20
38.15000000000002
 30
0.0
 11
148.22
 21
37.65000000000002
 31
0.0
  0
LINE
  5
18B
330
1F
100
AcDbEntity
  8
dim
100
AcDbLine
 10
152.72
 20
38.15000000000002
 30
0.0
 11
152.72
 21
37.65000000000002
 31
0.0
  0
LINE
  5
18C
330
1F
100
AcDbEntity
  8
dim
100
AcDbLine
 10
147.95
 20
15.65000000000002
 30
0.0
 11
154.19
 21
15.65000000000002
 31
0.0
  0
LINE
  5
18D
330
1F
100
AcDbEntity
  8
dim
100
AcDbLine
 10
152.72
 20
15.15000000000002
 30
0.0
 11
148.22
 21
15.15000000000002
 31
0.0
  0
LINE
  5
18E
330
1F
100
AcDbEntity
  8
dim
100
AcDbLine
 10
148.22
 20
15.15000000000002
 30
0.0
 11
148.22
 21
15.65000000000002
 31
0.0
  0
LINE
  5
18F
330
1F
100
AcDbEntity
  8
dim
100
AcDbLine
 10
152.72
 20
15.15000000000002
 30
0.0
 11
152.72
 21
15.65000000000002
 31
0.0
  0
LINE
  5
190
330
1F
100
AcDbEntity
  8
dim
100
AcDbLine
 10
96.38
 20
37.65000000000002
 30
0.0
 11
89.44999999999999
 21
37.65000000000002
 31
0.0
  0
LINE
  5
191
330
1F
100
AcDbEntity
  8
dim
100
AcDbLine
 10
91.22
 20
38.15000000000002
 30
0.0
 11
95.72
 21
38.15000000000002
 31
0.0
  0
LINE
  5
192
330
1F
100
AcDbEntity
  8
dim
100
AcDbLine
 10
95.72
 20
38.15000000000002
 30
0.0
 11
95.72
 21
37.65000000000002
 31
0.0
  0
LINE
  5
193
330
1F
100
AcDbEntity
  8
dim
100
AcDbLine
 10
91.22
 20
38.15000000000002
 30
0.0
 11
91.22
 21
37.65000000000002
 31
0.0
  0
LINE
  5
194
330
1F
100
AcDbEntity
  8
dim
100
AcDbLine
 10
91.22
 20
15.15000000000002
 30
0.0
 11
95.72
 21
15.15000000000002
 31
0.0
  0
LINE
  5
195
330
1F
100
AcDbEntity
  8
dim
100
AcDbLine
 10
95.72
 20
15.15000000000002
 30
0.0
 11
95.72
 21
15.65000000000002
 31
0.0
  0
LINE
  5
196
330
1F
100
AcDbEntity
  8
dim
100
AcDbLine
 10
91.22
 20
15.15000000000002
 30
0.0
 11
91.22
 21
15.65000000000002
 31
0.0
  0
LINE
  5
197
330
1F
100
AcDbEntity
  8
dim
100
AcDbLine
 10
121.97
 20
18.74128784700001
 30
0.0
 11
121.97
 21
33.74128784700001
 31
0.0
  0
LINE
  5
198
330
1F
100
AcDbEntity
  8
dim
100
AcDbLine
 10
75.47
 20
39.15000000000002
 30
0.0
 11
147.47
 21
39.15000000000002
 31
0.0
  0
ARC
  5
199
330
1F
100
AcDbEntity
  8
dim
100
AcDbCircle
 10
75.47
 20
38.65000000000002
 30
0.0
 40
0.5
100
AcDbArc
 50
90.0
 51
180.0
  0
LINE
  5
19A
330
1F
100
AcDbEntity
  8
dim
100
AcDbLine
 10
74.97
 20
38.65000000000002
 30
0.0
 11
74.97
 21
14.65000000000002
 31
0.0
  0
LINE
  5
19B
330
1F
100
AcDbEntity
  8
dim
100
AcDbLine
 10
147.97
 20
14.15000000000002
 30
0.0
 11
75.47
 21
14.15000000000002
 31
0.0
  0
ARC
  5
19C
330
1F
100
AcDbEntity
  8
dim
100
AcDbCircle
 10
75.47
 20
14.65000000000002
 30
0.0
 40
0.5
100
AcDbArc
 50
180.0
 51
270.0
  0
LINE
  5
19D
330
1F
100
AcDbEntity
  8
dim
100
AcDbLine
 10
168.47
 20
14.15000000000002
 30
0.0
 11
147.97
 21
14.15000000000002
 31
0.0
  0
ARC
  5
19E
330
1F
100
AcDbEntity
  8
dim
100
AcDbCircle
 10
168.47
 20
14.65000000000002
 30
0.0
 40
0.5
100
AcDbArc
 50
270.0
 51
0.0
  0
LINE
  5
19F
330
1F
100
AcDbEntity
  8
dim
100
AcDbLine
 10
148.2
 20
39.15000000000002
 30
0.0
 11
168.47
 21
39.15000000000002
 31
0.0
  0
ARC
  5
1A0
330
1F
100
AcDbEntity
  8
dim
100
AcDbCircle
 10
168.47
 20
38.65000000000002
 30
0.0
 40
0.5
100
AcDbArc
 50
0.0
 51
90.0
  0
LINE
  5
1A1
330
1F
100
AcDbEntity
  8
dim
100
AcDbLine
 10
146.45
 20
146.07
 30
0.0
 11
147.47
 21
146.07
 31
0.0
  0
LINE
  5
1A2
330
1F
100
AcDbEntity
  8
dim
100
AcDbLine
 10
147.47
 20
171.07
 30
0.0
 11
146.45
 21
171.07
 31
0.0
  0
LINE
  5
1A3
330
1F
100
AcDbEntity
  8
dim
100
AcDbLine
 10
158.97
 20
155.47
 30
0.0
 11
168.97
 21
155.47
 31
0.0
  0
LINE
  5
1A4
330
1F
100
AcDbEntity
  8
dim
100
AcDbLine
 10
158.97
 20
164.47
 30
0.0
 11
168.97
 21
164.47
 31
0.0
  0
LINE
  5
1A5
330
1F
100
AcDbEntity
  8
dim
100
AcDbLine
 10
158.97
 20
157.17
 30
0.0
 11
168.97
 21
157.17
 31
0.0
  0
LINE
  5
1A6
330
1F
100
AcDbEntity
  8
dim
100
AcDbLine
 10
147.27
 20
148.27
 30
0.0
 11
121.97
 21
148.27
 31
0.0
  0
LINE
  5
1A7
330
1F
100
AcDbEntity
  8
dim
100
AcDbLine
 10
157.97
 20
153.62
 30
0.0
 11
157.97
 21
159.02
 31
0.0
  0
LINE
  5
1A8
330
1F
100
AcDbEntity
  8
dim
100
AcDbLine
 10
167.97
 20
158.12
 30
0.0
 11
167.97
 21
163.52
 31
0.0
  0
LINE
  5
1A9
330
1F
100
AcDbEntity
  8
dim
100
AcDbLine
 10
167.97
 20
149.12
 30
0.0
 11
167.97
 21
154.52
 31
0.0
  0
LINE
  5
1AA
330
1F
100
AcDbEntity
  8
dim
100
AcDbLine
 10
158.97
 20
148.17
 30
0.0
 11
158.97
 21
155.47
 31
0.0
  0
TEXT
  5
1AB
330
1F
100
AcDbEntity
  8
dim
100
AcDbText
 10
164.57
 20
146.52
 30
0.0
 40
2.0
  1
7
 50
90.0
  7
title1
100
AcDbText
  0
TEXT
  5
1AC
330
1F
100
AcDbEntity
  8
dim
100
AcDbText
 10
164.52
 20
169.37
 30
0.0
 40
2.0
  1
8
 50
90.0
  7
title1
100
AcDbText
  0
LINE
  5
1AD
330
1F
100
AcDbEntity
  8
dim
100
AcDbLine
 10
157.97
 20
162.62
 30
0.0
 11
157.97
 21
168.02
 31
0.0
  0
TEXT
  5
1AE
330
1F
100
AcDbEntity
  8
dim
100
AcDbText
 10
156.35
 20
169.34
 30
0.0
 40
2.0
  1
6
 50
90.0
  7
title1
100
AcDbText
  0
TEXT
  5
1AF
330
1F
100
AcDbEntity
  8
dim
100
AcDbText
 10
156.35
 20
146.43
 30
0.0
 40
2.0
  1
5
 50
90.0
  7
title1
100
AcDbText
  0
ARC
  5
1B0
330
1F
100
AcDbEntity
  8
dim
100
AcDbCircle
 10
168.47
 20
170.57
 30
0.0
 40
0.5
100
AcDbArc
 50
0.0
 51
90.0
  0
LINE
  5
1B1
330
1F
100
AcDbEntity
  8
dim
100
AcDbLine
 10
168.97
 20
146.57
 30
0.0
 11
168.97
 21
170.57
 31
0.0
  0
ARC
  5
1B2
330
1F
100
AcDbEntity
  8
dim
100
AcDbCircle
 10
168.47
 20
146.57
 30
0.0
 40
0.5
100
AcDbArc
 50
270.0
 51
0.0
  0
LINE
  5
1B3
330
1F
100
AcDbEntity
  8
dim
100
AcDbLine
 10
147.87
 20
166.57
 30
0.0
 11
147.87
 21
165.57
 31
0.0
  0
LINE
  5
1B4
330
1F
100
AcDbEntity
  8
dim
100
AcDbLine
 10
147.87
 20
164.07
 30
0.0
 11
147.87
 21
163.07
 31
0.0
  0
LINE
  5
1B5
330
1F
100
AcDbEntity
  8
dim
100
AcDbLine
 10
147.87
 20
161.57
 30
0.0
 11
147.87
 21
160.57
 31
0.0
  0
LINE
  5
1B6
330
1F
100
AcDbEntity
  8
dim
100
AcDbLine
 10
147.87
 20
159.07
 30
0.0
 11
147.87
 21
158.07
 31
0.0
  0
LINE
  5
1B7
330
1F
100
AcDbEntity
  8
dim
100
AcDbLine
 10
147.87
 20
156.57
 30
0.0
 11
147.87
 21
155.57
 31
0.0
  0
LINE
  5
1B8
330
1F
100
AcDbEntity
  8
dim
100
AcDbLine
 10
147.87
 20
154.07
 30
0.0
 11
147.87
 21
153.07
 31
0.0
  0
LINE
  5
1B9
330
1F
100
AcDbEntity
  8
dim
100
AcDbLine
 10
147.87
 20
151.57
 30
0.0
 11
147.87
 21
150.57
 31
0.0
  0
LINE
  5
1BA
330
1F
100
AcDbEntity
  8
dim
100
AcDbLine
 10
147.27
 20
168.07
 30
0.0
 11
147.87
 21
168.07
 31
0.0
  0
LINE
  5
1BB
330
1F
100
AcDbEntity
  8
dim
100
AcDbLine
 10
147.27
 20
166.57
 30
0.0
 11
147.87
 21
166.57
 31
0.0
  0
LINE
  5
1BC
330
1F
100
AcDbEntity
  8
dim
100
AcDbLine
 10
147.27
 20
165.57
 30
0.0
 11
147.87
 21
165.57
 31
0.0
  0
LINE
  5
1BD
330
1F
100
AcDbEntity
  8
dim
100
AcDbLine
 10
147.27
 20
164.07
 30
0.0
 11
147.87
 21
164.07
 31
0.0
  0
LINE
  5
1BE
330
1F
100
AcDbEntity
  8
dim
100
AcDbLine
 10
147.27
 20
163.07
 30
0.0
 11
147.87
 21
163.07
 31
0.0
  0
LINE
  5
1BF
330
1F
100
AcDbEntity
  8
dim
100
AcDbLine
 10
147.27
 20
161.57
 30
0.0
 11
147.87
 21
161.57
 31
0.0
  0
LINE
  5
1C0
330
1F
100
AcDbEntity
  8
dim
100
AcDbLine
 10
147.27
 20
160.57
 30
0.0
 11
147.87
 21
160.57
 31
0.0
  0
LINE
  5
1C1
330
1F
100
AcDbEntity
  8
dim
100
AcDbLine
 10
147.27
 20
159.07
 30
0.0
 11
147.87
 21
159.07
 31
0.0
  0
LINE
  5
1C2
330
1F
100
AcDbEntity
  8
dim
100
AcDbLine
 10
147.27
 20
158.07
 30
0.0
 11
147.87
 21
158.07
 31
0.0
  0
LINE
  5
1C3
330
1F
100
AcDbEntity
  8
dim
100
AcDbLine
 10
147.27
 20
156.57
 30
0.0
 11
147.87
 21
156.57
 31
0.0
  0
LINE
  5
1C4
330
1F
100
AcDbEntity
  8
dim
100
AcDbLine
 10
147.27
 20
155.57
 30
0.0
 11
147.87
 21
155.57
 31
0.0
  0
LINE
  5
1C5
330
1F
100
AcDbEntity
  8
dim
100
AcDbLine
 10
147.27
 20
154.07
 30
0.0
 11
147.87
 21
154.07
 31
0.0
  0
LINE
  5
1C6
330
1F
100
AcDbEntity
  8
dim
100
AcDbLine
 10
147.27
 20
153.07
 30
0.0
 11
147.87
 21
153.07
 31
0.0
  0
LINE
  5
1C7
330
1F
100
AcDbEntity
  8
dim
100
AcDbLine
 10
147.27
 20
151.57
 30
0.0
 11
147.87
 21
151.57
 31
0.0
  0
LINE
  5
1C8
330
1F
100
AcDbEntity
  8
dim
100
AcDbLine
 10
147.27
 20
150.57
 30
0.0
 11
147.87
 21
150.57
 31
0.0
  0
LINE
  5
1C9
330
1F
100
AcDbEntity
  8
dim
100
AcDbLine
 10
147.27
 20
149.07
 30
0.0
 11
147.87
 21
149.07
 31
0.0
  0
LINE
  5
1CA
330
1F
100
AcDbEntity
  8
dim
100
AcDbLine
 10
147.87
 20
149.07
 30
0.0
 11
147.87
 21
148.17
 31
0.0
  0
ARC
  5
1CB
330
1F
100
AcDbEntity
  8
dim
100
AcDbCircle
 10
149.77
 20
170.07
 30
0.0
 40
1.0
100
AcDbArc
 50
0.0
 51
90.0
  0
LINE
  5
1CC
330
1F
100
AcDbEntity
  8
dim
100
AcDbLine
 10
149.77
 20
171.07
 30
0.0
 11
168.47
 21
171.07
 31
0.0
  0
ARC
  5
1CD
330
1F
100
AcDbEntity
  8
dim
100
AcDbCircle
 10
149.87
 20
147.07
 30
0.0
 40
1.0
100
AcDbArc
 50
270.0
 51
0.0
  0
LINE
  5
1CE
330
1F
100
AcDbEntity
  8
dim
100
AcDbLine
 10
150.87
 20
148.17
 30
0.0
 11
150.87
 21
147.07
 31
0.0
  0
LINE
  5
1CF
330
1F
100
AcDbEntity
  8
dim
100
AcDbLine
 10
150.77
 20
159.97
 30
0.0
 11
150.77
 21
161.67
 31
0.0
  0
LINE
  5
1D0
330
1F
100
AcDbEntity
  8
dim
100
AcDbLine
 10
152.77
 20
159.97
 30
0.0
 11
152.77
 21
161.67
 31
0.0
  0
LINE
  5
1D1
330
1F
100
AcDbEntity
  8
dim
100
AcDbLine
 10
166.97
 20
146.07
 30
0.0
 11
166.97
 21
148.17
 31
0.0
  0
LINE
  5
1D2
330
1F
100
AcDbEntity
  8
dim
100
AcDbLine
 10
147.87
 20
169.07
 30
0.0
 11
147.87
 21
168.07
 31
0.0
  0
LINE
  5
1D3
330
1F
100
AcDbEntity
  8
dim
100
AcDbLine
 10
166.97
 20
171.07
 30
0.0
 11
166.97
 21
169.07
 31
0.0
  0
LINE
  5
1D4
330
1F
100
AcDbEntity
  8
dim
100
AcDbLine
 10
158.97
 20
155.42
 30
0.0
 11
158.97
 21
169.07
 31
0.0
  0
LINE
  5
1D5
330
1F
100
AcDbEntity
  8
dim
100
AcDbLine
 10
150.77
 20
169.07
 30
0.0
 11
150.77
 21
170.07
 31
0.0
  0
LINE
  5
1D6
330
1F
100
AcDbEntity
  8
dim
100
AcDbLine
 10
145.77
 20
168.87
 30
0.0
 11
147.27
 21
167.37
 31
0.0
  0
LINE
  5
1D7
330
1F
100
AcDbEntity
  8
dim
100
AcDbLine
 10
147.27
 20
148.27
 30
0.0
 11
147.27
 21
167.37
 31
0.0
  0
LINE
  5
1D8
330
1F
100
AcDbEntity
  8
dim
100
AcDbLine
 10
147.27
 20
168.07
 30
0.0
 11
147.27
 21
148.27
 31
0.0
  0
LINE
  5
1D9
330
1F
100
AcDbEntity
  8
dim
100
AcDbLine
 10
147.87
 20
168.07
 30
0.0
 11
147.87
 21
166.57
 31
0.0
  0
LINE
  5
1DA
330
1F
100
AcDbEntity
  8
dim
100
AcDbLine
 10
147.87
 20
165.57
 30
0.0
 11
147.87
 21
164.07
 31
0.0
  0
LINE
  5
1DB
330
1F
100
AcDbEntity
  8
dim
100
AcDbLine
 10
147.87
 20
163.07
 30
0.0
 11
147.87
 21
161.57
 31
0.0
  0
LINE
  5
1DC
330
1F
100
AcDbEntity
  8
dim
100
AcDbLine
 10
147.87
 20
160.57
 30
0.0
 11
147.87
 21
159.07
 31
0.0
  0
LINE
  5
1DD
330
1F
100
AcDbEntity
  8
dim
100
AcDbLine
 10
147.87
 20
158.07
 30
0.0
 11
147.87
 21
156.57
 31
0.0
  0
LINE
  5
1DE
330
1F
100
AcDbEntity
  8
dim
100
AcDbLine
 10
147.87
 20
155.57
 30
0.0
 11
147.87
 21
154.07
 31
0.0
  0
LINE
  5
1DF
330
1F
100
AcDbEntity
  8
dim
100
AcDbLine
 10
147.87
 20
153.07
 30
0.0
 11
147.87
 21
151.57
 31
0.0
  0
LINE
  5
1E0
330
1F
100
AcDbEntity
  8
dim
100
AcDbLine
 10
147.87
 20
150.57
 30
0.0
 11
147.87
 21
149.07
 31
0.0
  0
LINE
  5
1E1
330
1F
100
AcDbEntity
  8
dim
100
AcDbLine
 10
84.97
 20
155.47
 30
0.0
 11
74.97
 21
155.47
 31
0.0
  0
LINE
  5
1E2
330
1F
100
AcDbEntity
  8
dim
100
AcDbLine
 10
84.97
 20
164.47
 30
0.0
 11
74.97
 21
164.47
 31
0.0
  0
LINE
  5
1E3
330
1F
100
AcDbEntity
  8
dim
100
AcDbLine
 10
84.97
 20
157.17
 30
0.0
 11
74.97
 21
157.17
 31
0.0
  0
LINE
  5
1E4
330
1F
100
AcDbEntity
  8
dim
100
AcDbLine
 10
85.97
 20
153.62
 30
0.0
 11
85.97
 21
159.02
 31
0.0
  0
LINE
  5
1E5
330
1F
100
AcDbEntity
  8
dim
100
AcDbLine
 10
75.97
 20
158.12
 30
0.0
 11
75.97
 21
163.52
 31
0.0
  0
LINE
  5
1E6
330
1F
100
AcDbEntity
  8
dim
100
AcDbLine
 10
75.97
 20
149.12
 30
0.0
 11
75.97
 21
154.52
 31
0.0
  0
LINE
  5
1E7
330
1F
100
AcDbEntity
  8
dim
100
AcDbLine
 10
84.97
 20
148.17
 30
0.0
 11
84.97
 21
155.47
 31
0.0
  0
LINE
  5
1E8
330
1F
100
AcDbEntity
  8
dim
100
AcDbLine
 10
85.97
 20
162.62
 30
0.0
 11
85.97
 21
168.02
 31
0.0
  0
ARC
  5
1E9
330
1F
100
AcDbEntity
  8
dim
100
AcDbCircle
 10
75.47
 20
170.57
 30
0.0
 40
0.5
100
AcDbArc
 50
90.0
 51
180.0
  0
LINE
  5
1EA
330
1F
100
AcDbEntity
  8
dim
100
AcDbLine
 10
74.97
 20
146.57
 30
0.0
 11
74.97
 21
170.57
 31
0.0
  0
ARC
  5
1EB
330
1F
100
AcDbEntity
  8
dim
100
AcDbCircle
 10
75.47
 20
146.57
 30
0.0
 40
0.5
100
AcDbArc
 50
180.0
 51
270.0
  0
LINE
  5
1EC
330
1F
100
AcDbEntity
  8
dim
100
AcDbLine
 10
96.07
 20
166.57
 30
0.0
 11
96.07
 21
165.57
 31
0.0
  0
LINE
  5
1ED
330
1F
100
AcDbEntity
  8
dim
100
AcDbLine
 10
96.07
 20
164.07
 30
0.0
 11
96.07
 21
163.07
 31
0.0
  0
LINE
  5
1EE
330
1F
100
AcDbEntity
  8
dim
100
AcDbLine
 10
96.07
 20
161.57
 30
0.0
 11
96.07
 21
160.57
 31
0.0
  0
LINE
  5
1EF
330
1F
100
AcDbEntity
  8
dim
100
AcDbLine
 10
96.07
 20
159.07
 30
0.0
 11
96.07
 21
158.07
 31
0.0
  0
LINE
  5
1F0
330
1F
100
AcDbEntity
  8
dim
100
AcDbLine
 10
96.07
 20
156.57
 30
0.0
 11
96.07
 21
155.57
 31
0.0
  0
LINE
  5
1F1
330
1F
100
AcDbEntity
  8
dim
100
AcDbLine
 10
96.07
 20
154.07
 30
0.0
 11
96.07
 21
153.07
 31
0.0
  0
LINE
  5
1F2
330
1F
100
AcDbEntity
  8
dim
100
AcDbLine
 10
96.07
 20
151.57
 30
0.0
 11
96.07
 21
150.57
 31
0.0
  0
LINE
  5
1F3
330
1F
100
AcDbEntity
  8
dim
100
AcDbLine
 10
96.66999999999999
 20
168.07
 30
0.0
 11
96.07
 21
168.07
 31
0.0
  0
LINE
  5
1F4
330
1F
100
AcDbEntity
  8
dim
100
AcDbLine
 10
96.66999999999999
 20
166.57
 30
0.0
 11
96.07
 21
166.57
 31
0.0
  0
LINE
  5
1F5
330
1F
100
AcDbEntity
  8
dim
100
AcDbLine
 10
96.66999999999999
 20
165.57
 30
0.0
 11
96.07
 21
165.57
 31
0.0
  0
LINE
  5
1F6
330
1F
100
AcDbEntity
  8
dim
100
AcDbLine
 10
96.66999999999999
 20
164.07
 30
0.0
 11
96.07
 21
164.07
 31
0.0
  0
LINE
  5
1F7
330
1F
100
AcDbEntity
  8
dim
100
AcDbLine
 10
96.66999999999999
 20
163.07
 30
0.0
 11
96.07
 21
163.07
 31
0.0
  0
LINE
  5
1F8
330
1F
100
AcDbEntity
  8
dim
100
AcDbLine
 10
96.66999999999999
 20
161.57
 30
0.0
 11
96.07
 21
161.57
 31
0.0
  0
LINE
  5
1F9
330
1F
100
AcDbEntity
  8
dim
100
AcDbLine
 10
96.66999999999999
 20
160.57
 30
0.0
 11
96.07
 21
160.57
 31
0.0
  0
LINE
  5
1FA
330
1F
100
AcDbEntity
  8
dim
100
AcDbLine
 10
96.66999999999999
 20
159.07
 30
0.0
 11
96.07
 21
159.07
 31
0.0
  0
LINE
  5
1FB
330
1F
100
AcDbEntity
  8
dim
100
AcDbLine
 10
96.66999999999999
 20
158.07
 30
0.0
 11
96.07
 21
158.07
 31
0.0
  0
LINE
  5
1FC
330
1F
100
AcDbEntity
  8
dim
100
AcDbLine
 10
96.66999999999999
 20
156.57
 30
0.0
 11
96.07
 21
156.57
 31
0.0
  0
LINE
  5
1FD
330
1F
100
AcDbEntity
  8
dim
100
AcDbLine
 10
96.66999999999999
 20
155.57
 30
0.0
 11
96.07
 21
155.57
 31
0.0
  0
LINE
  5
1FE
330
1F
100
AcDbEntity
  8
dim
100
AcDbLine
 10
96.66999999999999
 20
154.07
 30
0.0
 11
96.07
 21
154.07
 31
0.0
  0
LINE
  5
1FF
330
1F
100
AcDbEntity
  8
dim
100
AcDbLine
 10
96.66999999999999
 20
153.07
 30
0.0
 11
96.07
 21
153.07
 31
0.0
  0
LINE
  5
200
330
1F
100
AcDbEntity
  8
dim
100
AcDbLine
 10
96.66999999999999
 20
151.57
 30
0.0
 11
96.07
 21
151.57
 31
0.0
  0
LINE
  5
201
330
1F
100
AcDbEntity
  8
dim
100
AcDbLine
 10
96.66999999999999
 20
150.57
 30
0.0
 11
96.07
 21
150.57
 31
0.0
  0
LINE
  5
202
330
1F
100
AcDbEntity
  8
dim
100
AcDbLine
 10
96.66999999999999
 20
149.07
 30
0.0
 11
96.07
 21
149.07
 31
0.0
  0
LINE
  5
203
330
1F
100
AcDbEntity
  8
dim
100
AcDbLine
 10
96.07
 20
149.07
 30
0.0
 11
96.07
 21
148.17
 31
0.0
  0
ARC
  5
204
330
1F
100
AcDbEntity
  8
dim
100
AcDbCircle
 10
94.16999999999999
 20
170.07
 30
0.0
 40
1.0
100
AcDbArc
 50
90.0
 51
180.0
  0
LINE
  5
205
330
1F
100
AcDbEntity
  8
dim
100
AcDbLine
 10
94.16999999999999
 20
171.07
 30
0.0
 11
75.47
 21
171.07
 31
0.0
  0
ARC
  5
206
330
1F
100
AcDbEntity
  8
dim
100
AcDbCircle
 10
94.07
 20
147.07
 30
0.0
 40
1.0
100
AcDbArc
 50
180.0
 51
270.0
  0
LINE
  5
207
330
1F
100
AcDbEntity
  8
dim
100
AcDbLine
 10
93.07
 20
148.17
 30
0.0
 11
93.07
 21
147.07
 31
0.0
  0
LINE
  5
208
330
1F
100
AcDbEntity
  8
dim
100
AcDbLine
 10
93.16999999999999
 20
159.97
 30
0.0
 11
93.16999999999999
 21
161.67
 31
0.0
  0
LINE
  5
209
330
1F
100
AcDbEntity
  8
dim
100
AcDbLine
 10
91.16999999999999
 20
159.97
 30
0.0
 11
91.16999999999999
 21
161.67
 31
0.0
  0
LINE
  5
20A
330
1F
100
AcDbEntity
  8
dim
100
AcDbLine
 10
76.97
 20
146.07
 30
0.0
 11
76.97
 21
148.17
 31
0.0
  0
LWPOLYLINE
  5
20B
330
1F
100
AcDbEntity
  8
dim
100
AcDbPolyline
 90
        3
 70
     0
 43
0.0
 10
94.97
 20
169.07
 10
96.07
 20
169.07
 10
96.07
 20
168.07
  0
LINE
  5
20C
330
1F
100
AcDbEntity
  8
dim
100
AcDbLine
 10
76.97
 20
171.07
 30
0.0
 11
76.97
 21
169.07
 31
0.0
  0
LINE
  5
20D
330
1F
100
AcDbEntity
  8
dim
100
AcDbLine
 10
84.97
 20
155.42
 30
0.0
 11
84.97
 21
169.07
 31
0.0
  0
LINE
  5
20E
330
1F
100
AcDbEntity
  8
dim
100
AcDbLine
 10
93.16999999999999
 20
169.07
 30
0.0
 11
93.16999999999999
 21
170.07
 31
0.0
  0
LINE
  5
20F
330
1F
100
AcDbEntity
  8
dim
100
AcDbLine
 10
96.66999999999999
 20
148.27
 30
0.0
 11
96.66999999999999
 21
167.37
 31
0.0
  0
LINE
  5
210
330
1F
100
AcDbEntity
  8
dim
100
AcDbLine
 10
96.66999999999999
 20
168.07
 30
0.0
 11
96.66999999999999
 21
148.27
 31
0.0
  0
LINE
  5
211
330
1F
100
AcDbEntity
  8
dim
100
AcDbLine
 10
96.07
 20
168.07
 30
0.0
 11
96.07
 21
166.57
 31
0.0
  0
LINE
  5
212
330
1F
100
AcDbEntity
  8
dim
100
AcDbLine
 10
96.07
 20
165.57
 30
0.0
 11
96.07
 21
164.07
 31
0.0
  0
LINE
  5
213
330
1F
100
AcDbEntity
  8
dim
100
AcDbLine
 10
96.07
 20
163.07
 30
0.0
 11
96.07
 21
161.57
 31
0.0
  0
LINE
  5
214
330
1F
100
AcDbEntity
  8
dim
100
AcDbLine
 10
96.07
 20
160.57
 30
0.0
 11
96.07
 21
159.07
 31
0.0
  0
LINE
  5
215
330
1F
100
AcDbEntity
  8
dim
100
AcDbLine
 10
96.07
 20
158.07
 30
0.0
 11
96.07
 21
156.57
 31
0.0
  0
LINE
  5
216
330
1F
100
AcDbEntity
  8
dim
100
AcDbLine
 10
96.07
 20
155.57
 30
0.0
 11
96.07
 21
154.07
 31
0.0
  0
LINE
  5
217
330
1F
100
AcDbEntity
  8
dim
100
AcDbLine
 10
96.07
 20
153.07
 30
0.0
 11
96.07
 21
151.57
 31
0.0
  0
LINE
  5
218
330
1F
100
AcDbEntity
  8
dim
100
AcDbLine
 10
96.07
 20
150.57
 30
0.0
 11
96.07
 21
149.07
 31
0.0
  0
LINE
  5
219
330
1F
100
AcDbEntity
  8
dim
100
AcDbLine
 10
94.16999999999999
 20
171.07
 30
0.0
 11
149.77
 21
171.07
 31
0.0
  0
LINE
  5
21A
330
1F
100
AcDbEntity
  8
dim
100
AcDbLine
 10
168.47
 20
146.07
 30
0.0
 11
75.47
 21
146.07
 31
0.0
  0
LINE
  5
21B
330
1F
100
AcDbEntity
  8
dim
100
AcDbLine
 10
83.97
 20
163.52
 30
0.0
 11
84.97
 21
163.52
 31
0.0
  0
LINE
  5
21C
330
1F
100
AcDbEntity
  8
dim
100
AcDbLine
 10
75.97
 20
163.52
 30
0.0
 11
76.97
 21
163.52
 31
0.0
  0
LINE
  5
21D
330
1F
100
AcDbEntity
  8
dim
100
AcDbLine
 10
76.97
 20
158.12
 30
0.0
 11
75.97
 21
158.12
 31
0.0
  0
LINE
  5
21E
330
1F
100
AcDbEntity
  8
dim
100
AcDbLine
 10
84.97
 20
158.12
 30
0.0
 11
84.07
 21
158.12
 31
0.0
  0
LINE
  5
21F
330
1F
100
AcDbEntity
  8
dim
100
AcDbLine
 10
84.07
 20
154.52
 30
0.0
 11
84.97
 21
154.52
 31
0.0
  0
LINE
  5
220
330
1F
100
AcDbEntity
  8
dim
100
AcDbLine
 10
75.97
 20
154.52
 30
0.0
 11
76.97
 21
154.52
 31
0.0
  0
LINE
  5
221
330
1F
100
AcDbEntity
  8
dim
100
AcDbLine
 10
76.97
 20
149.12
 30
0.0
 11
75.97
 21
149.12
 31
0.0
  0
LINE
  5
222
330
1F
100
AcDbEntity
  8
dim
100
AcDbLine
 10
84.97
 20
149.12
 30
0.0
 11
84.07
 21
149.12
 31
0.0
  0
LINE
  5
223
330
1F
100
AcDbEntity
  8
dim
100
AcDbLine
 10
86.97
 20
153.62
 30
0.0
 11
85.97
 21
153.62
 31
0.0
  0
LINE
  5
224
330
1F
100
AcDbEntity
  8
dim
100
AcDbLine
 10
85.97
 20
159.02
 30
0.0
 11
86.97
 21
159.02
 31
0.0
  0
LINE
  5
225
330
1F
100
AcDbEntity
  8
dim
100
AcDbLine
 10
85.97
 20
168.02
 30
0.0
 11
87.07
 21
168.02
 31
0.0
  0
LINE
  5
226
330
1F
100
AcDbEntity
  8
dim
100
AcDbLine
 10
86.87
 20
162.62
 30
0.0
 11
85.97
 21
162.62
 31
0.0
  0
LINE
  5
227
330
1F
100
AcDbEntity
  8
dim
100
AcDbLine
 10
157.97
 20
168.02
 30
0.0
 11
156.97
 21
168.02
 31
0.0
  0
LINE
  5
228
330
1F
100
AcDbEntity
  8
dim
100
AcDbLine
 10
157.07
 20
162.62
 30
0.0
 11
157.97
 21
162.62
 31
0.0
  0
LINE
  5
229
330
1F
100
AcDbEntity
  8
dim
100
AcDbLine
 10
157.97
 20
159.02
 30
0.0
 11
157.07
 21
159.02
 31
0.0
  0
LINE
  5
22A
330
1F
100
AcDbEntity
  8
dim
100
AcDbLine
 10
157.17
 20
153.62
 30
0.0
 11
157.97
 21
153.62
 31
0.0
  0
LINE
  5
22B
330
1F
100
AcDbEntity
  8
dim
100
AcDbLine
 10
159.87
 20
163.52
 30
0.0
 11
158.97
 21
163.52
 31
0.0
  0
LINE
  5
22C
330
1F
100
AcDbEntity
  8
dim
100
AcDbLine
 10
167.97
 20
163.52
 30
0.0
 11
167.07
 21
163.52
 31
0.0
  0
LINE
  5
22D
330
1F
100
AcDbEntity
  8
dim
100
AcDbLine
 10
166.97
 20
158.12
 30
0.0
 11
167.97
 21
158.12
 31
0.0
  0
LINE
  5
22E
330
1F
100
AcDbEntity
  8
dim
100
AcDbLine
 10
158.97
 20
158.12
 30
0.0
 11
159.97
 21
158.12
 31
0.0
  0
LINE
  5
22F
330
1F
100
AcDbEntity
  8
dim
100
AcDbLine
 10
160.07
 20
154.52
 30
0.0
 11
158.97
 21
154.52
 31
0.0
  0
LINE
  5
230
330
1F
100
AcDbEntity
  8
dim
100
AcDbLine
 10
167.97
 20
154.52
 30
0.0
 11
167.07
 21
154.52
 31
0.0
  0
LINE
  5
231
330
1F
100
AcDbEntity
  8
dim
100
AcDbLine
 10
167.17
 20
149.12
 30
0.0
 11
167.97
 21
149.12
 31
0.0
  0
LINE
  5
232
330
1F
100
AcDbEntity
  8
dim
100
AcDbLine
 10
158.97
 20
149.12
 30
0.0
 11
159.97
 21
149.12
 31
0.0
  0
ARC
  5
233
330
1F
100
AcDbEntity
  8
dim
100
AcDbCircle
 10
150.27
 20
113.602250994
 30
0.0
 40
0.5
100
AcDbArc
 50
0.0
 51
90.0
  0
LWPOLYLINE
  5
234
330
1F
100
AcDbEntity
  8
dim
100
AcDbPolyline
 90
        3
 70
     0
 43
0.0
 10
165.97
 20
110.552250994
 10
150.77
 20
110.552250994
 10
150.77
 20
113.602250994
  0
CIRCLE
  5
235
330
1F
100
AcDbEntity
  8
dim
100
AcDbCircle
 10
149.07
 20
109.552250994
 30
0.0
 40
0.5999999999999943
  0
CIRCLE
  5
236
330
1F
100
AcDbEntity
  8
dim
100
AcDbCircle
 10
149.07
 20
109.552250994
 30
0.0
 40
0.5999999999999943
  0
ARC
  5
237
330
1F
100
AcDbEntity
  8
dim
100
AcDbCircle
 10
165.97
 20
109.552250994
 30
0.0
 40
1.0
100
AcDbArc
 50
0.0
 51
90.0
  0
LINE
  5
238
330
1F
100
AcDbEntity
  8
dim
100
AcDbLine
 10
166.97
 20
98.60225099400002
 30
0.0
 11
166.97
 21
109.552250994
 31
0.0
  0
LINE
  5
239
330
1F
100
AcDbEntity
  8
dim
100
AcDbLine
 10
150.27
 20
114.102250994
 30
0.0
 11
93.66999999999999
 21
114.102250994
 31
0.0
  0
CIRCLE
  5
23A
330
1F
100
AcDbEntity
  8
dim
100
AcDbCircle
 10
164.470221577
 20
108.952250994
 30
0.0
 40
0.5999999999999943
  0
ARC
  5
23B
330
1F
100
AcDbEntity
  8
dim
100
AcDbCircle
 10
93.66999999999999
 20
113.602250994
 30
0.0
 40
0.5
100
AcDbArc
 50
90.0
 51
180.0
  0
LWPOLYLINE
  5
23C
330
1F
100
AcDbEntity
  8
dim
100
AcDbPolyline
 90
        3
 70
     0
 43
0.0
 10
77.97
 20
110.552250994
 10
93.16999999999999
 20
110.552250994
 10
93.16999999999999
 20
113.602250994
  0
CIRCLE
  5
23D
330
1F
100
AcDbEntity
  8
dim
100
AcDbCircle
 10
94.87
 20
109.552250994
 30
0.0
 40
0.5999999999999943
  0
CIRCLE
  5
23E
330
1F
100
AcDbEntity
  8
dim
100
AcDbCircle
 10
94.87
 20
109.552250994
 30
0.0
 40
0.5999999999999943
  0
ARC
  5
23F
330
1F
100
AcDbEntity
  8
dim
100
AcDbCircle
 10
77.97
 20
109.552250994
 30
0.0
 40
1.0
100
AcDbArc
 50
90.0
 51
180.0
  0
LINE
  5
240
330
1F
100
AcDbEntity
  8
dim
100
AcDbLine
 10
76.97
 20
98.60225099400002
 30
0.0
 11
76.97
 21
109.552250994
 31
0.0
  0
LINE
  5
241
330
1F
100
AcDbEntity
  8
dim
100
AcDbLine
 10
93.66999999999999
 20
114.102250994
 30
0.0
 11
150.27
 21
114.102250994
 31
0.0
  0
CIRCLE
  5
242
330
1F
100
AcDbEntity
  8
dim
100
AcDbCircle
 10
79.469778423
 20
108.952250994
 30
0.0
 40
0.5999999999999943
  0
LINE
  5
243
330
1F
100
AcDbEntity
  8
dim
100
AcDbLine
 10
76.078259193
 20
98.60225099400002
 30
0.0
 11
76.97
 21
98.60225099400002
 31
0.0
  0
LINE
  5
244
330
1F
100
AcDbEntity
  8
dim
100
AcDbLine
 10
148.594580475
 20
122.445260457
 30
0.0
 11
149.878606346
 21
124.233773124
 31
0.0
  0
LINE
  5
245
330
1F
100
AcDbEntity
  8
dim
100
AcDbLine
 10
147.533688999
 20
129.313149891
 30
0.0
 11
148.232729674
 21
129.34978506
 31
0.0
  0
ARC
  5
246
330
1F
100
AcDbEntity
  8
dim
100
AcDbCircle
 10
147.559856977
 20
128.813835123
 30
0.0
 40
0.5000000000000263
100
AcDbArc
 50
92.99999999999892
 51
182.9999999999989
  0
ARC
  5
247
330
1F
100
AcDbEntity
  8
dim
100
AcDbCircle
 10
148.863192398
 20
124.962768676
 30
0.0
 40
1.249999999999992
100
AcDbArc
 50
324.3243212060005
 51
71.5606550410005
  0
LINE
  5
248
330
1F
100
AcDbEntity
  8
dim
100
AcDbLine
 10
148.38523665
 20
126.439778596
 30
0.0
 11
149.258568092
 21
126.148592466
 31
0.0
  0
LINE
  5
249
330
1F
100
AcDbEntity
  8
dim
100
AcDbLine
 10
148.232729674
 20
129.34978506
 30
0.0
 11
148.38523665
 21
126.439778596
 31
0.0
  0
ARC
  5
24A
330
1F
100
AcDbEntity
  8
dim
100
AcDbCircle
 10
94.87
 20
109.552250994
 30
0.0
 40
0.7999999999999898
100
AcDbArc
 50
101.4775121860009
 51
172.9999999960009
  0
LINE
  5
24B
330
1F
100
AcDbEntity
  8
dim
100
AcDbLine
 10
88.52000000000001
 20
110.552250994
 30
0.0
 11
94.97
 21
110.552250994
 31
0.0
  0
LINE
  5
24C
330
1F
100
AcDbEntity
  8
dim
100
AcDbLine
 10
95.34541952500001
 20
122.445260457
 30
0.0
 11
94.061393654
 21
124.233773124
 31
0.0
  0
LINE
  5
24D
330
1F
100
AcDbEntity
  8
dim
100
AcDbLine
 10
95.34541952500001
 20
122.445260457
 30
0.0
 11
94.71081335
 21
110.336253297
 31
0.0
  0
ARC
  5
24E
330
1F
100
AcDbEntity
  8
dim
100
AcDbCircle
 10
95.16435526500001
 20
109.436687254
 30
0.0
 40
0.699999999999987
100
AcDbArc
 50
266.999999999999
 51
356.999999999999
  0
LINE
  5
24F
330
1F
100
AcDbEntity
  8
dim
100
AcDbLine
 10
95.66999999999999
 20
109.552250994
 30
0.0
 11
95.66999999999999
 21
109.852250994
 31
0.0
  0
ARC
  5
250
330
1F
100
AcDbEntity
  8
dim
100
AcDbCircle
 10
94.97
 20
109.852250994
 30
0.0
 40
0.6999999999999886
100
AcDbArc
 50
0.0
 51
90.0
  0
LINE
  5
251
330
1F
100
AcDbEntity
  8
dim
100
AcDbLine
 10
96.20096285700001
 20
115.841212583
 30
0.0
 11
95.86339593899999
 21
109.400052084
 31
0.0
  0
LINE
  5
252
330
1F
100
AcDbEntity
  8
dim
100
AcDbLine
 10
94.814194821
 20
108.754199754
 30
0.0
 11
94.873464036
 21
108.750055246
 31
0.0
  0
LINE
  5
253
330
1F
100
AcDbEntity
  8
dim
100
AcDbLine
 10
94.828131235
 20
108.753347366
 30
0.0
 11
95.127720095
 21
108.737646579
 31
0.0
  0
ARC
  5
254
330
1F
100
AcDbEntity
  8
dim
100
AcDbCircle
 10
94.87
 20
109.552250994
 30
0.0
 40
0.8000000000000109
100
AcDbArc
 50
194.4775121860004
 51
265.9999999960003
  0
ARC
  5
255
330
1F
100
AcDbEntity
  8
dim
100
AcDbCircle
 10
94.87
 20
109.552250994
 30
0.0
 40
0.7999999999999945
100
AcDbArc
 50
172.9999999999993
 51
266.9999999999994
  0
ARC
  5
256
330
1F
100
AcDbEntity
  8
dim
100
AcDbCircle
 10
94.87
 20
109.552250994
 30
0.0
 40
0.7999999999999962
100
AcDbArc
 50
265.999999999999
 51
359.999999999999
  0
LINE
  5
257
330
1F
100
AcDbEntity
  8
dim
100
AcDbLine
 10
96.406311001
 20
129.313149891
 30
0.0
 11
95.70727032599999
 21
129.34978506
 31
0.0
  0
ARC
  5
258
330
1F
100
AcDbEntity
  8
dim
100
AcDbCircle
 10
96.38014302299999
 20
128.813835123
 30
0.0
 40
0.4999999999999979
100
AcDbArc
 50
357.0000000000009
 51
87.0000000000009
  0
ARC
  5
259
330
1F
100
AcDbEntity
  8
dim
100
AcDbCircle
 10
95.076807602
 20
124.962768676
 30
0.0
 40
1.249999999999996
100
AcDbArc
 50
108.4393449590005
 51
215.6756787940005
  0
LINE
  5
25A
330
1F
100
AcDbEntity
  8
dim
100
AcDbLine
 10
95.55476335
 20
126.439778596
 30
0.0
 11
94.68143190800001
 21
126.148592466
 31
0.0
  0
LINE
  5
25B
330
1F
100
AcDbEntity
  8
dim
100
AcDbLine
 10
95.70727032599999
 20
129.34978506
 30
0.0
 11
95.55476335
 21
126.439778596
 31
0.0
  0
LINE
  5
25C
330
1F
100
AcDbEntity
  8
dim
100
AcDbLine
 10
96.87945779
 20
128.787667145
 30
0.0
 11
95.86339593899999
 21
109.400052084
 31
0.0
  0
LINE
  5
25D
330
1F
100
AcDbEntity
  8
dim
100
AcDbLine
 10
75.05577842299999
 20
110.052250994
 30
0.0
 11
75.05577842299999
 21
109.352250994
 31
0.0
  0
ARC
  5
25E
330
1F
100
AcDbEntity
  8
dim
100
AcDbCircle
 10
75.55577842299999
 20
110.052250994
 30
0.0
 40
0.5
100
AcDbArc
 50
90.0
 51
180.0
  0
ARC
  5
25F
330
1F
100
AcDbEntity
  8
dim
100
AcDbCircle
 10
79.469778423
 20
108.952250994
 30
0.0
 40
1.249999999999999
100
AcDbArc
 50
201.4393449589995
 51
308.6756787939995
  0
LINE
  5
260
330
1F
100
AcDbEntity
  8
dim
100
AcDbLine
 10
81.969778423
 20
109.352250994
 30
0.0
 11
80.250917572
 21
107.976381315
 31
0.0
  0
LINE
  5
261
330
1F
100
AcDbEntity
  8
dim
100
AcDbLine
 10
77.969778423
 20
109.352250994
 30
0.0
 11
78.306272128
 21
108.495355927
 31
0.0
  0
LINE
  5
262
330
1F
100
AcDbEntity
  8
dim
100
AcDbLine
 10
75.05577842299999
 20
109.352250994
 30
0.0
 11
77.969778423
 21
109.352250994
 31
0.0
  0
LINE
  5
263
330
1F
100
AcDbEntity
  8
dim
100
AcDbLine
 10
81.969778423
 20
109.352250994
 30
0.0
 11
94.095403331
 21
109.352250994
 31
0.0
  0
LINE
  5
264
330
1F
100
AcDbEntity
  8
dim
100
AcDbLine
 10
75.55577842299999
 20
110.552250994
 30
0.0
 11
94.97
 21
110.552250994
 31
0.0
  0
LINE
  5
265
330
1F
100
AcDbEntity
  8
dim
100
AcDbLine
 10
168.884221577
 20
110.052250994
 30
0.0
 11
168.884221577
 21
109.352250994
 31
0.0
  0
ARC
  5
266
330
1F
100
AcDbEntity
  8
dim
100
AcDbCircle
 10
168.384221577
 20
110.052250994
 30
0.0
 40
0.5
100
AcDbArc
 50
0.0
 51
90.0
  0
ARC
  5
267
330
1F
100
AcDbEntity
  8
dim
100
AcDbCircle
 10
164.470221577
 20
108.952250994
 30
0.0
 40
1.250000000000012
100
AcDbArc
 50
231.324321206
 51
338.560655041
  0
LINE
  5
268
330
1F
100
AcDbEntity
  8
dim
100
AcDbLine
 10
161.970221577
 20
109.352250994
 30
0.0
 11
163.689082428
 21
107.976381315
 31
0.0
  0
LINE
  5
269
330
1F
100
AcDbEntity
  8
dim
100
AcDbLine
 10
165.970221577
 20
109.352250994
 30
0.0
 11
165.633727872
 21
108.495355927
 31
0.0
  0
LINE
  5
26A
330
1F
100
AcDbEntity
  8
dim
100
AcDbLine
 10
168.884221577
 20
109.352250994
 30
0.0
 11
165.970221577
 21
109.352250994
 31
0.0
  0
ARC
  5
26B
330
1F
100
AcDbEntity
  8
dim
100
AcDbCircle
 10
149.07
 20
109.552250994
 30
0.0
 40
0.8000000000000066
100
AcDbArc
 50
7.000000003999735
 51
78.52248781399975
  0
LINE
  5
26C
330
1F
100
AcDbEntity
  8
dim
100
AcDbLine
 10
155.42
 20
110.552250994
 30
0.0
 11
148.97
 21
110.552250994
 31
0.0
  0
LINE
  5
26D
330
1F
100
AcDbEntity
  8
dim
100
AcDbLine
 10
148.594580475
 20
122.445260457
 30
0.0
 11
149.22918665
 21
110.336253297
 31
0.0
  0
ARC
  5
26E
330
1F
100
AcDbEntity
  8
dim
100
AcDbCircle
 10
148.775644735
 20
109.436687254
 30
0.0
 40
0.699999999999987
100
AcDbArc
 50
183.000000000001
 51
273.000000000001
  0
LINE
  5
26F
330
1F
100
AcDbEntity
  8
dim
100
AcDbLine
 10
148.27
 20
109.552250994
 30
0.0
 11
148.27
 21
109.852250994
 31
0.0
  0
ARC
  5
270
330
1F
100
AcDbEntity
  8
dim
100
AcDbCircle
 10
148.97
 20
109.852250994
 30
0.0
 40
0.6999999999999886
100
AcDbArc
 50
90.0
 51
180.0
  0
LINE
  5
271
330
1F
100
AcDbEntity
  8
dim
100
AcDbLine
 10
147.739037143
 20
115.841212583
 30
0.0
 11
148.076604061
 21
109.400052084
 31
0.0
  0
LINE
  5
272
330
1F
100
AcDbEntity
  8
dim
100
AcDbLine
 10
149.125805179
 20
108.754199754
 30
0.0
 11
149.066535964
 21
108.750055246
 31
0.0
  0
LINE
  5
273
330
1F
100
AcDbEntity
  8
dim
100
AcDbLine
 10
149.111868765
 20
108.753347366
 30
0.0
 11
148.812279905
 21
108.737646579
 31
0.0
  0
ARC
  5
274
330
1F
100
AcDbEntity
  8
dim
100
AcDbCircle
 10
149.07
 20
109.552250994
 30
0.0
 40
0.7999999999999977
100
AcDbArc
 50
274.0000000040004
 51
345.5224878140004
  0
ARC
  5
275
330
1F
100
AcDbEntity
  8
dim
100
AcDbCircle
 10
149.07
 20
109.552250994
 30
0.0
 40
0.8000000000000084
100
AcDbArc
 50
272.9999999999994
 51
6.999999999999565
  0
ARC
  5
276
330
1F
100
AcDbEntity
  8
dim
100
AcDbCircle
 10
149.07
 20
109.552250994
 30
0.0
 40
0.8000000000000114
100
AcDbArc
 50
180.0
 51
274.0
  0
LINE
  5
277
330
1F
100
AcDbEntity
  8
dim
100
AcDbLine
 10
147.06054221
 20
128.787667145
 30
0.0
 11
148.076604061
 21
109.400052084
 31
0.0
  0
LINE
  5
278
330
1F
100
AcDbEntity
  8
dim
100
AcDbLine
 10
161.970221577
 20
109.352250994
 30
0.0
 11
149.844596669
 21
109.352250994
 31
0.0
  0
LINE
  5
279
330
1F
100
AcDbEntity
  8
dim
100
AcDbLine
 10
168.384221577
 20
110.552250994
 30
0.0
 11
148.97
 21
110.552250994
 31
0.0
  0
LINE
  5
27A
330
1F
100
AcDbEntity
  8
dim
100
AcDbLine
 10
166.97
 20
98.60225099400002
 30
0.0
 11
167.874510944
 21
98.60225099400002
 31
0.0
  0
ARC
  5
27B
330
1F
100
AcDbEntity
  8
dim
100
AcDbCircle
 10
149.735803212
 20
168.52
 30
0.0
 40
0.7500000000000004
100
AcDbArc
 50
23.57817847799902
 51
156.421821521999
  0
LINE
  5
27C
330
1F
100
AcDbEntity
  8
dim
100
AcDbLine
 10
150.941581635
 20
167.82
 30
0.0
 11
149.291581635
 21
167.82
 31
0.0
  0
ARC
  5
27D
330
1F
100
AcDbEntity
  8
dim
100
AcDbCircle
 10
149.735803212
 20
148.62
 30
0.0
 40
0.7500000000000004
100
AcDbArc
 50
203.578178477999
 51
336.421821521999
  0
LINE
  5
27E
330
1F
100
AcDbEntity
  8
dim
100
AcDbLine
 10
150.941581635
 20
149.32
 30
0.0
 11
149.291581635
 21
149.32
 31
0.0
  0
ARC
  5
27F
330
1F
100
AcDbEntity
  8
dim
100
AcDbCircle
 10
148.341581635
 20
148.57
 30
0.0
 40
0.25
100
AcDbArc
 50
180.0
 51
270.00015455
  0
LINE
  5
280
330
1F
100
AcDbEntity
  8
dim
100
AcDbLine
 10
148.448416857
 20
148.32
 30
0.0
 11
148.341582309
 21
148.32
 31
0.0
  0
ARC
  5
281
330
1F
100
AcDbEntity
  8
dim
100
AcDbCircle
 10
148.341581635
 20
168.57
 30
0.0
 40
0.25
100
AcDbArc
 50
90.0
 51
180.0
  0
LINE
  5
282
330
1F
100
AcDbEntity
  8
dim
100
AcDbLine
 10
150.941581635
 20
168.57
 30
0.0
 11
150.941581635
 21
167.82
 31
0.0
  0
LINE
  5
283
330
1F
100
AcDbEntity
  8
dim
100
AcDbLine
 10
148.341581635
 20
168.82
 30
0.0
 11
150.691581635
 21
168.82
 31
0.0
  0
ARC
  5
284
330
1F
100
AcDbEntity
  8
dim
100
AcDbCircle
 10
150.691581635
 20
168.57
 30
0.0
 40
0.25
100
AcDbArc
 50
0.0
 51
90.0
  0
LINE
  5
285
330
1F
100
AcDbEntity
  8
dim
100
AcDbLine
 10
148.341581635
 20
148.32
 30
0.0
 11
150.691581635
 21
148.32
 31
0.0
  0
LINE
  5
286
330
1F
100
AcDbEntity
  8
dim
100
AcDbLine
 10
150.941581635
 20
148.57
 30
0.0
 11
150.941581635
 21
149.32
 31
0.0
  0
ARC
  5
287
330
1F
100
AcDbEntity
  8
dim
100
AcDbCircle
 10
150.691581635
 20
148.57
 30
0.0
 40
0.25
100
AcDbArc
 50
270.0
 51
0.0
  0
LINE
  5
288
330
1F
100
AcDbEntity
  8
dim
100
AcDbLine
 10
149.291581635
 20
148.32
 30
0.0
 11
149.291581635
 21
168.82
 31
0.0
  0
LINE
  5
289
330
1F
100
AcDbEntity
  8
dim
100
AcDbLine
 10
148.091581635
 20
148.57
 30
0.0
 11
148.091581635
 21
168.57
 31
0.0
  0
LINE
  5
28A
330
1F
100
AcDbEntity
  8
dim
100
AcDbLine
 10
148.491581635
 20
169.07
 30
0.0
 11
148.491581635
 21
168.82
 31
0.0
  0
LINE
  5
28B
330
1F
100
AcDbEntity
  8
dim
100
AcDbLine
 10
150.245705163
 20
169.07
 30
0.0
 11
166.97
 21
169.07
 31
0.0
  0
LINE
  5
28C
330
1F
100
AcDbEntity
  8
dim
100
AcDbLine
 10
149.92
 20
162.27
 30
0.0
 11
149.92
 21
167.82
 31
0.0
  0
ARC
  5
28D
330
1F
100
AcDbEntity
  8
dim
100
AcDbCircle
 10
150.42
 20
168.37
 30
0.0
 40
0.5
100
AcDbArc
 50
90.0
 51
92.36664205
  0
LINE
  5
28E
330
1F
100
AcDbEntity
  8
dim
100
AcDbLine
 10
149.291581635
 20
162.62
 30
0.0
 11
149.97
 21
162.62
 31
0.0
  0
LINE
  5
28F
330
1F
100
AcDbEntity
  8
dim
100
AcDbLine
 10
149.291581635
 20
161.67
 30
0.0
 11
158.97
 21
161.67
 31
0.0
  0
LINE
  5
290
330
1F
100
AcDbEntity
  8
dim
100
AcDbLine
 10
149.291581635
 20
159.97
 30
0.0
 11
158.97
 21
159.97
 31
0.0
  0
LINE
  5
291
330
1F
100
AcDbEntity
  8
dim
100
AcDbLine
 10
149.97
 20
159.02
 30
0.0
 11
149.291581635
 21
159.02
 31
0.0
  0
LINE
  5
292
330
1F
100
AcDbEntity
  8
dim
100
AcDbLine
 10
149.291581635
 20
153.62
 30
0.0
 11
149.87
 21
153.62
 31
0.0
  0
LINE
  5
293
330
1F
100
AcDbEntity
  8
dim
100
AcDbLine
 10
149.291581635
 20
152.67
 30
0.0
 11
158.97
 21
152.67
 31
0.0
  0
LINE
  5
294
330
1F
100
AcDbEntity
  8
dim
100
AcDbLine
 10
148.491581635
 20
148.17
 30
0.0
 11
148.491581635
 21
148.32
 31
0.0
  0
LINE
  5
295
330
1F
100
AcDbEntity
  8
dim
100
AcDbLine
 10
150.335803212
 20
148.17
 30
0.0
 11
168.97
 21
148.17
 31
0.0
  0
LINE
  5
296
330
1F
100
AcDbEntity
  8
dim
100
AcDbLine
 10
147.87
 20
148.17
 30
0.0
 11
149.135803212
 21
148.17
 31
0.0
  0
ARC
  5
297
330
1F
100
AcDbEntity
  8
dim
100
AcDbCircle
 10
94.20419678799999
 20
148.62
 30
0.0
 40
0.7500000000000004
100
AcDbArc
 50
203.578178477999
 51
336.421821521999
  0
LINE
  5
298
330
1F
100
AcDbEntity
  8
dim
100
AcDbLine
 10
92.99841836499999
 20
149.32
 30
0.0
 11
94.648418365
 21
149.32
 31
0.0
  0
ARC
  5
299
330
1F
100
AcDbEntity
  8
dim
100
AcDbCircle
 10
94.20419678799999
 20
168.52
 30
0.0
 40
0.7500000000000004
100
AcDbArc
 50
23.57817847799902
 51
156.421821521999
  0
LINE
  5
29A
330
1F
100
AcDbEntity
  8
dim
100
AcDbLine
 10
92.99841836499999
 20
167.82
 30
0.0
 11
94.648418365
 21
167.82
 31
0.0
  0
ARC
  5
29B
330
1F
100
AcDbEntity
  8
dim
100
AcDbCircle
 10
95.59841836499999
 20
168.57
 30
0.0
 40
0.25
100
AcDbArc
 50
0.0
 51
90.00015455
  0
LINE
  5
29C
330
1F
100
AcDbEntity
  8
dim
100
AcDbLine
 10
95.49158314299999
 20
168.82
 30
0.0
 11
95.59841769100001
 21
168.82
 31
0.0
  0
ARC
  5
29D
330
1F
100
AcDbEntity
  8
dim
100
AcDbCircle
 10
95.59841836499999
 20
148.57
 30
0.0
 40
0.25
100
AcDbArc
 50
270.0
 51
0.0
  0
LINE
  5
29E
330
1F
100
AcDbEntity
  8
dim
100
AcDbLine
 10
92.99841836499999
 20
148.57
 30
0.0
 11
92.99841836499999
 21
149.32
 31
0.0
  0
LINE
  5
29F
330
1F
100
AcDbEntity
  8
dim
100
AcDbLine
 10
95.59841836499999
 20
148.32
 30
0.0
 11
93.24841836499999
 21
148.32
 31
0.0
  0
ARC
  5
2A0
330
1F
100
AcDbEntity
  8
dim
100
AcDbCircle
 10
93.24841836499999
 20
148.57
 30
0.0
 40
0.25
100
AcDbArc
 50
180.0
 51
270.0
  0
LINE
  5
2A1
330
1F
100
AcDbEntity
  8
dim
100
AcDbLine
 10
95.59841836499999
 20
168.82
 30
0.0
 11
93.24841836499999
 21
168.82
 31
0.0
  0
LINE
  5
2A2
330
1F
100
AcDbEntity
  8
dim
100
AcDbLine
 10
92.99841836499999
 20
168.57
 30
0.0
 11
92.99841836499999
 21
167.82
 31
0.0
  0
ARC
  5
2A3
330
1F
100
AcDbEntity
  8
dim
100
AcDbCircle
 10
93.24841836499999
 20
168.57
 30
0.0
 40
0.25
100
AcDbArc
 50
90.0
 51
180.0
  0
LINE
  5
2A4
330
1F
100
AcDbEntity
  8
dim
100
AcDbLine
 10
94.648418365
 20
168.82
 30
0.0
 11
94.648418365
 21
148.32
 31
0.0
  0
LINE
  5
2A5
330
1F
100
AcDbEntity
  8
dim
100
AcDbLine
 10
95.84841836499999
 20
168.57
 30
0.0
 11
95.84841836499999
 21
148.57
 31
0.0
  0
LINE
  5
2A6
330
1F
100
AcDbEntity
  8
dim
100
AcDbLine
 10
95.44841836500001
 20
148.17
 30
0.0
 11
95.44841836500001
 21
148.32
 31
0.0
  0
LINE
  5
2A7
330
1F
100
AcDbEntity
  8
dim
100
AcDbLine
 10
93.604196788
 20
148.17
 30
0.0
 11
74.97
 21
148.17
 31
0.0
  0
LINE
  5
2A8
330
1F
100
AcDbEntity
  8
dim
100
AcDbLine
 10
96.07
 20
148.17
 30
0.0
 11
94.80419678800001
 21
148.17
 31
0.0
  0
LINE
  5
2A9
330
1F
100
AcDbEntity
  8
dim
100
AcDbLine
 10
94.648418365
 20
152.67
 30
0.0
 11
84.97
 21
152.67
 31
0.0
  0
LINE
  5
2AA
330
1F
100
AcDbEntity
  8
dim
100
AcDbLine
 10
94.648418365
 20
153.62
 30
0.0
 11
93.97
 21
153.62
 31
0.0
  0
LINE
  5
2AB
330
1F
100
AcDbEntity
  8
dim
100
AcDbLine
 10
93.97
 20
159.02
 30
0.0
 11
94.648418365
 21
159.02
 31
0.0
  0
LINE
  5
2AC
330
1F
100
AcDbEntity
  8
dim
100
AcDbLine
 10
94.648418365
 20
159.97
 30
0.0
 11
84.97
 21
159.97
 31
0.0
  0
LINE
  5
2AD
330
1F
100
AcDbEntity
  8
dim
100
AcDbLine
 10
94.648418365
 20
161.67
 30
0.0
 11
84.97
 21
161.67
 31
0.0
  0
LINE
  5
2AE
330
1F
100
AcDbEntity
  8
dim
100
AcDbLine
 10
94.648418365
 20
162.62
 30
0.0
 11
94.07
 21
162.62
 31
0.0
  0
LINE
  5
2AF
330
1F
100
AcDbEntity
  8
dim
100
AcDbLine
 10
94.02000000000001
 20
162.27
 30
0.0
 11
94.02000000000001
 21
167.82
 31
0.0
  0
ARC
  5
2B0
330
1F
100
AcDbEntity
  8
dim
100
AcDbCircle
 10
93.52000000000001
 20
168.37
 30
0.0
 40
0.5000000000000144
100
AcDbArc
 50
87.63335786999974
 51
89.99999999999974
  0
LINE
  5
2B1
330
1F
100
AcDbEntity
  8
dim
100
AcDbLine
 10
93.694294837
 20
169.07
 30
0.0
 11
76.97
 21
169.07
 31
0.0
  0
LINE
  5
2B2
330
1F
100
AcDbEntity
  8
dim
100
AcDbLine
 10
94.97
 20
169.07
 30
0.0
 11
94.71409874
 21
169.07
 31
0.0
  0
LINE
  5
2B3
330
1F
100
AcDbEntity
  8
dim
100
AcDbLine
 10
95.44841836500001
 20
169.07
 30
0.0
 11
95.44841836500001
 21
168.82
 31
0.0
  0
LINE
  5
2B4
330
1F
100
AcDbEntity
  8
dim
100
AcDbLine
 10
149.22590126
 20
169.07
 30
0.0
 11
147.87
 21
169.07
 31
0.0
  0
ARC
  5
2B5
330
1F
100
AcDbEntity
  8
dim
100
AcDbCircle
 10
76.97
 20
16.65000000000002
 30
0.0
 40
1.0
100
AcDbArc
 50
180.0
 51
270.0
  0
ARC
  5
2B6
330
1F
100
AcDbEntity
  8
dim
100
AcDbCircle
 10
76.97
 20
36.65000000000002
 30
0.0
 40
1.0
100
AcDbArc
 50
90.0
 51
180.0
  0
LINE
  5
2B7
330
1F
100
AcDbEntity
  8
dim
100
AcDbLine
 10
75.97
 20
36.65000000000002
 30
0.0
 11
75.97
 21
16.65000000000002
 31
0.0
  0
CIRCLE
  5
2B8
330
1F
100
AcDbEntity
  8
dim
100
AcDbCircle
 10
83.47
 20
26.65000000000002
 30
0.0
 40
1.75
  0
LINE
  5
2B9
330
1F
100
AcDbEntity
  8
dim
100
AcDbLine
 10
87.97
 20
35.10000000000001
 30
0.0
 11
77.97
 21
35.10000000000001
 31
0.0
  0
LINE
  5
2BA
330
1F
100
AcDbEntity
  8
dim
100
AcDbLine
 10
77.97
 20
35.10000000000001
 30
0.0
 11
77.97
 21
27.90000000000002
 31
0.0
  0
LINE
  5
2BB
330
1F
100
AcDbEntity
  8
dim
100
AcDbLine
 10
87.97
 20
29.15000000000002
 30
0.0
 11
87.97
 21
35.10000000000001
 31
0.0
  0
LINE
  5
2BC
330
1F
100
AcDbEntity
  8
dim
100
AcDbLine
 10
80.47
 20
27.90000000000002
 30
0.0
 11
77.97
 21
27.90000000000002
 31
0.0
  0
LINE
  5
2BD
330
1F
100
AcDbEntity
  8
dim
100
AcDbLine
 10
87.97
 20
18.20000000000002
 30
0.0
 11
77.97
 21
18.20000000000002
 31
0.0
  0
LINE
  5
2BE
330
1F
100
AcDbEntity
  8
dim
100
AcDbLine
 10
77.97
 20
18.20000000000002
 30
0.0
 11
77.97
 21
25.40000000000002
 31
0.0
  0
LINE
  5
2BF
330
1F
100
AcDbEntity
  8
dim
100
AcDbLine
 10
87.97
 20
24.15000000000002
 30
0.0
 11
87.97
 21
18.20000000000002
 31
0.0
  0
LINE
  5
2C0
330
1F
100
AcDbEntity
  8
dim
100
AcDbLine
 10
80.47
 20
25.40000000000002
 30
0.0
 11
77.97
 21
25.40000000000002
 31
0.0
  0
LINE
  5
2C1
330
1F
100
AcDbEntity
  8
dim
100
AcDbLine
 10
89.97
 20
35.10000000000001
 30
0.0
 11
100.97
 21
35.10000000000001
 31
0.0
  0
LINE
  5
2C2
330
1F
100
AcDbEntity
  8
dim
100
AcDbLine
 10
100.97
 20
35.10000000000001
 30
0.0
 11
100.97
 21
27.90000000000002
 31
0.0
  0
CIRCLE
  5
2C3
330
1F
100
AcDbEntity
  8
dim
100
AcDbCircle
 10
88.97
 20
26.65000000000002
 30
0.0
 40
1.0
  0
LINE
  5
2C4
330
1F
100
AcDbEntity
  8
dim
100
AcDbLine
 10
86.804936491
 20
27.90000000000002
 30
0.0
 11
86.47
 21
27.90000000000002
 31
0.0
  0
ARC
  5
2C5
330
1F
100
AcDbEntity
  8
dim
100
AcDbCircle
 10
88.97
 20
26.65000000000002
 30
0.0
 40
2.499999999999999
100
AcDbArc
 50
113.578178478
 51
150.0
  0
LINE
  5
2C6
330
1F
100
AcDbEntity
  8
dim
100
AcDbLine
 10
91.13506350899999
 20
27.90000000000002
 30
0.0
 11
100.97
 21
27.90000000000002
 31
0.0
  0
ARC
  5
2C7
330
1F
100
AcDbEntity
  8
dim
100
AcDbCircle
 10
88.97
 20
26.65000000000002
 30
0.0
 40
2.500000000000008
100
AcDbArc
 50
29.99999999999989
 51
66.4218215219999
  0
LINE
  5
2C8
330
1F
100
AcDbEntity
  8
dim
100
AcDbLine
 10
89.97
 20
35.10000000000001
 30
0.0
 11
89.97
 21
28.94128784700001
 31
0.0
  0
ARC
  5
2C9
330
1F
100
AcDbEntity
  8
dim
100
AcDbCircle
 10
83.47
 20
26.65000000000002
 30
0.0
 40
3.249999999999999
100
AcDbArc
 50
22.61986494799999
 51
157.380135052
  0
LINE
  5
2CA
330
1F
100
AcDbEntity
  8
dim
100
AcDbLine
 10
86.804936491
 20
25.40000000000002
 30
0.0
 11
86.47
 21
25.40000000000002
 31
0.0
  0
ARC
  5
2CB
330
1F
100
AcDbEntity
  8
dim
100
AcDbCircle
 10
83.47
 20
26.65000000000002
 30
0.0
 40
3.249999999999999
100
AcDbArc
 50
202.619864948
 51
337.380135052
  0
LINE
  5
2CC
330
1F
100
AcDbEntity
  8
dim
100
AcDbLine
 10
100.804936491
 20
27.90000000000002
 30
0.0
 11
90.97
 21
27.90000000000002
 31
0.0
  0
LINE
  5
2CD
330
1F
100
AcDbEntity
  8
dim
100
AcDbLine
 10
100.97
 20
18.20000000000002
 30
0.0
 11
100.97
 21
25.40000000000002
 31
0.0
  0
LINE
  5
2CE
330
1F
100
AcDbEntity
  8
dim
100
AcDbLine
 10
91.13506350899999
 20
25.40000000000002
 30
0.0
 11
100.97
 21
25.40000000000002
 31
0.0
  0
LINE
  5
2CF
330
1F
100
AcDbEntity
  8
dim
100
AcDbLine
 10
100.804936491
 20
25.40000000000002
 30
0.0
 11
90.97
 21
25.40000000000002
 31
0.0
  0
LINE
  5
2D0
330
1F
100
AcDbEntity
  8
dim
100
AcDbLine
 10
89.97
 20
18.20000000000002
 30
0.0
 11
89.97
 21
24.35871215300001
 31
0.0
  0
LINE
  5
2D1
330
1F
100
AcDbEntity
  8
dim
100
AcDbLine
 10
89.97
 20
18.20000000000002
 30
0.0
 11
100.97
 21
18.20000000000002
 31
0.0
  0
ARC
  5
2D2
330
1F
100
AcDbEntity
  8
dim
100
AcDbCircle
 10
88.97
 20
26.65000000000002
 30
0.0
 40
2.500000000000008
100
AcDbArc
 50
209.9999999999999
 51
327.9946167919999
  0
LINE
  5
2D3
330
1F
100
AcDbEntity
  8
dim
100
AcDbLine
 10
104.37
 20
30.65000000000002
 30
0.0
 11
105.87
 21
30.65000000000002
 31
0.0
  0
LINE
  5
2D4
330
1F
100
AcDbEntity
  8
dim
100
AcDbLine
 10
105.87
 20
30.65000000000002
 30
0.0
 11
105.87
 21
26.65000000000002
 31
0.0
  0
LINE
  5
2D5
330
1F
100
AcDbEntity
  8
dim
100
AcDbLine
 10
104.37
 20
30.65000000000002
 30
0.0
 11
103.37
 21
30.65000000000002
 31
0.0
  0
LINE
  5
2D6
330
1F
100
AcDbEntity
  8
dim
100
AcDbLine
 10
103.37
 20
30.65000000000002
 30
0.0
 11
103.37
 21
35.15000000000002
 31
0.0
  0
LINE
  5
2D7
330
1F
100
AcDbEntity
  8
dim
100
AcDbLine
 10
103.37
 20
35.15000000000002
 30
0.0
 11
104.37
 21
35.15000000000002
 31
0.0
  0
LINE
  5
2D8
330
1F
100
AcDbEntity
  8
dim
100
AcDbLine
 10
104.37
 20
37.65000000000002
 30
0.0
 11
104.37
 21
35.15000000000002
 31
0.0
  0
LINE
  5
2D9
330
1F
100
AcDbEntity
  8
dim
100
AcDbLine
 10
103.37
 20
18.15000000000002
 30
0.0
 11
104.37
 21
18.15000000000002
 31
0.0
  0
LINE
  5
2DA
330
1F
100
AcDbEntity
  8
dim
100
AcDbLine
 10
104.37
 20
15.65000000000002
 30
0.0
 11
104.37
 21
18.15000000000002
 31
0.0
  0
LINE
  5
2DB
330
1F
100
AcDbEntity
  8
dim
100
AcDbLine
 10
105.87
 20
22.65000000000002
 30
0.0
 11
105.87
 21
26.65000000000002
 31
0.0
  0
LINE
  5
2DC
330
1F
100
AcDbEntity
  8
dim
100
AcDbLine
 10
104.37
 20
18.15000000000002
 30
0.0
 11
104.37
 21
15.65000000000002
 31
0.0
  0
LINE
  5
2DD
330
1F
100
AcDbEntity
  8
dim
100
AcDbLine
 10
104.37
 20
30.65000000000002
 30
0.0
 11
104.37
 21
22.65000000000002
 31
0.0
  0
LINE
  5
2DE
330
1F
100
AcDbEntity
  8
dim
100
AcDbLine
 10
103.37
 20
22.65000000000002
 30
0.0
 11
105.87
 21
22.65000000000002
 31
0.0
  0
LINE
  5
2DF
330
1F
100
AcDbEntity
  8
dim
100
AcDbLine
 10
103.37
 20
22.65000000000002
 30
0.0
 11
103.37
 21
18.15000000000002
 31
0.0
  0
LINE
  5
2E0
330
1F
100
AcDbEntity
  8
dim
100
AcDbLine
 10
104.37
 20
30.65000000000002
 30
0.0
 11
104.37
 21
31.65000000000002
 31
0.0
  0
LINE
  5
2E1
330
1F
100
AcDbEntity
  8
dim
100
AcDbLine
 10
106.87
 20
31.65000000000002
 30
0.0
 11
106.87
 21
26.65000000000002
 31
0.0
  0
LINE
  5
2E2
330
1F
100
AcDbEntity
  8
dim
100
AcDbLine
 10
104.37
 20
31.65000000000002
 30
0.0
 11
106.87
 21
31.65000000000002
 31
0.0
  0
LINE
  5
2E3
330
1F
100
AcDbEntity
  8
dim
100
AcDbLine
 10
104.37
 20
22.65000000000002
 30
0.0
 11
104.37
 21
21.65000000000002
 31
0.0
  0
LINE
  5
2E4
330
1F
100
AcDbEntity
  8
dim
100
AcDbLine
 10
106.87
 20
21.65000000000002
 30
0.0
 11
106.87
 21
26.65000000000002
 31
0.0
  0
LINE
  5
2E5
330
1F
100
AcDbEntity
  8
dim
100
AcDbLine
 10
104.37
 20
21.65000000000002
 30
0.0
 11
106.87
 21
21.65000000000002
 31
0.0
  0
LINE
  5
2E6
330
1F
100
AcDbEntity
  8
dim
100
AcDbLine
 10
107.92
 20
26.65000000000002
 30
0.0
 11
107.92
 21
31.42000000000002
 31
0.0
  0
ARC
  5
2E7
330
1F
100
AcDbEntity
  8
dim
100
AcDbCircle
 10
108.15
 20
31.42000000000002
 30
0.0
 40
0.230000000000004
100
AcDbArc
 50
90.0
 51
180.0
  0
LINE
  5
2E8
330
1F
100
AcDbEntity
  8
dim
100
AcDbLine
 10
108.15
 20
31.65000000000002
 30
0.0
 11
108.19
 21
31.65000000000002
 31
0.0
  0
LINE
  5
2E9
330
1F
100
AcDbEntity
  8
dim
100
AcDbLine
 10
108.42
 20
31.42000000000002
 30
0.0
 11
108.42
 21
26.65000000000002
 31
0.0
  0
ARC
  5
2EA
330
1F
100
AcDbEntity
  8
dim
100
AcDbCircle
 10
108.19
 20
31.42000000000002
 30
0.0
 40
0.2299999999999898
100
AcDbArc
 50
0.0
 51
90.0
  0
LINE
  5
2EB
330
1F
100
AcDbEntity
  8
dim
100
AcDbLine
 10
108.42
 20
26.65000000000002
 30
0.0
 11
108.42
 21
21.13000000000001
 31
0.0
  0
ARC
  5
2EC
330
1F
100
AcDbEntity
  8
dim
100
AcDbCircle
 10
108.19
 20
21.13000000000001
 30
0.0
 40
0.230000000000004
100
AcDbArc
 50
270.0
 51
0.0
  0
LINE
  5
2ED
330
1F
100
AcDbEntity
  8
dim
100
AcDbLine
 10
108.15
 20
20.90000000000002
 30
0.0
 11
108.19
 21
20.90000000000002
 31
0.0
  0
LINE
  5
2EE
330
1F
100
AcDbEntity
  8
dim
100
AcDbLine
 10
107.92
 20
26.65000000000002
 30
0.0
 11
107.92
 21
21.13000000000001
 31
0.0
  0
ARC
  5
2EF
330
1F
100
AcDbEntity
  8
dim
100
AcDbCircle
 10
108.15
 20
21.13000000000001
 30
0.0
 40
0.2299999999999898
100
AcDbArc
 50
180.0
 51
270.0
  0
LINE
  5
2F0
330
1F
100
AcDbEntity
  8
dim
100
AcDbLine
 10
110.97
 20
33.65000000000002
 30
0.0
 11
118.97
 21
33.65000000000002
 31
0.0
  0
LINE
  5
2F1
330
1F
100
AcDbEntity
  8
dim
100
AcDbLine
 10
109.97
 20
32.65000000000002
 30
0.0
 11
109.97
 21
32.60000000000001
 31
0.0
  0
LINE
  5
2F2
330
1F
100
AcDbEntity
  8
dim
100
AcDbLine
 10
119.97
 20
32.65000000000002
 30
0.0
 11
119.97
 21
32.60000000000001
 31
0.0
  0
ARC
  5
2F3
330
1F
100
AcDbEntity
  8
dim
100
AcDbCircle
 10
118.97
 20
32.65000000000002
 30
0.0
 40
1.0
100
AcDbArc
 50
270.0
 51
90.0
  0
LINE
  5
2F4
330
1F
100
AcDbEntity
  8
dim
100
AcDbLine
 10
118.97
 20
31.65000000000002
 30
0.0
 11
110.970001907
 21
31.65000000000002
 31
0.0
  0
ARC
  5
2F5
330
1F
100
AcDbEntity
  8
dim
100
AcDbCircle
 10
110.97
 20
32.65000000000002
 30
0.0
 40
1.0
100
AcDbArc
 50
90.0
 51
270.000109283
  0
LINE
  5
2F6
330
1F
100
AcDbEntity
  8
dim
100
AcDbLine
 10
132.97
 20
33.65000000000002
 30
0.0
 11
124.97
 21
33.65000000000002
 31
0.0
  0
LINE
  5
2F7
330
1F
100
AcDbEntity
  8
dim
100
AcDbLine
 10
133.97
 20
32.65000000000002
 30
0.0
 11
133.97
 21
32.60000000000001
 31
0.0
  0
LINE
  5
2F8
330
1F
100
AcDbEntity
  8
dim
100
AcDbLine
 10
123.97
 20
32.65000000000002
 30
0.0
 11
123.97
 21
32.60000000000001
 31
0.0
  0
ARC
  5
2F9
330
1F
100
AcDbEntity
  8
dim
100
AcDbCircle
 10
124.97
 20
32.65000000000002
 30
0.0
 40
1.0
100
AcDbArc
 50
90.0
 51
270.0
  0
LINE
  5
2FA
330
1F
100
AcDbEntity
  8
dim
100
AcDbLine
 10
124.97
 20
31.65000000000002
 30
0.0
 11
132.969998093
 21
31.65000000000002
 31
0.0
  0
ARC
  5
2FB
330
1F
100
AcDbEntity
  8
dim
100
AcDbCircle
 10
132.97
 20
32.65000000000002
 30
0.0
 40
1.0
100
AcDbArc
 50
269.9998907169993
 51
89.99999999999933
  0
LINE
  5
2FC
330
1F
100
AcDbEntity
  8
dim
100
AcDbLine
 10
110.97
 20
19.65000000000002
 30
0.0
 11
118.97
 21
19.65000000000002
 31
0.0
  0
LINE
  5
2FD
330
1F
100
AcDbEntity
  8
dim
100
AcDbLine
 10
109.97
 20
20.65000000000002
 30
0.0
 11
109.97
 21
20.70000000000002
 31
0.0
  0
LINE
  5
2FE
330
1F
100
AcDbEntity
  8
dim
100
AcDbLine
 10
119.97
 20
20.65000000000002
 30
0.0
 11
119.97
 21
20.70000000000002
 31
0.0
  0
ARC
  5
2FF
330
1F
100
AcDbEntity
  8
dim
100
AcDbCircle
 10
118.97
 20
20.65000000000002
 30
0.0
 40
1.0
100
AcDbArc
 50
270.0
 51
90.0
  0
LINE
  5
300
330
1F
100
AcDbEntity
  8
dim
100
AcDbLine
 10
118.97
 20
21.65000000000002
 30
0.0
 11
110.970001907
 21
21.65000000000002
 31
0.0
  0
ARC
  5
301
330
1F
100
AcDbEntity
  8
dim
100
AcDbCircle
 10
110.97
 20
20.65000000000002
 30
0.0
 40
1.0
100
AcDbArc
 50
89.99989071699933
 51
269.9999999999993
  0
LINE
  5
302
330
1F
100
AcDbEntity
  8
dim
100
AcDbLine
 10
132.97
 20
19.65000000000002
 30
0.0
 11
124.97
 21
19.65000000000002
 31
0.0
  0
LINE
  5
303
330
1F
100
AcDbEntity
  8
dim
100
AcDbLine
 10
133.97
 20
20.65000000000002
 30
0.0
 11
133.97
 21
20.70000000000002
 31
0.0
  0
LINE
  5
304
330
1F
100
AcDbEntity
  8
dim
100
AcDbLine
 10
123.97
 20
20.65000000000002
 30
0.0
 11
123.97
 21
20.70000000000002
 31
0.0
  0
ARC
  5
305
330
1F
100
AcDbEntity
  8
dim
100
AcDbCircle
 10
124.97
 20
20.65000000000002
 30
0.0
 40
1.0
100
AcDbArc
 50
90.0
 51
270.0
  0
LINE
  5
306
330
1F
100
AcDbEntity
  8
dim
100
AcDbLine
 10
124.97
 20
21.65000000000002
 30
0.0
 11
132.969998093
 21
21.65000000000002
 31
0.0
  0
ARC
  5
307
330
1F
100
AcDbEntity
  8
dim
100
AcDbCircle
 10
132.97
 20
20.65000000000002
 30
0.0
 40
1.0
100
AcDbArc
 50
270.0
 51
90.000109283
  0
ARC
  5
308
330
1F
100
AcDbEntity
  8
dim
100
AcDbCircle
 10
118.47
 20
26.65000000000002
 30
0.0
 40
1.5
100
AcDbArc
 50
0.0
 51
90.0
  0
LINE
  5
309
330
1F
100
AcDbEntity
  8
dim
100
AcDbLine
 10
111.47
 20
28.15000000000002
 30
0.0
 11
118.47
 21
28.15000000000002
 31
0.0
  0
ARC
  5
30A
330
1F
100
AcDbEntity
  8
dim
100
AcDbCircle
 10
111.47
 20
26.65000000000002
 30
0.0
 40
1.5
100
AcDbArc
 50
90.0
 51
180.0
  0
ARC
  5
30B
330
1F
100
AcDbEntity
  8
dim
100
AcDbCircle
 10
118.47
 20
26.65000000000002
 30
0.0
 40
1.5
100
AcDbArc
 50
270.0
 51
0.0
  0
LINE
  5
30C
330
1F
100
AcDbEntity
  8
dim
100
AcDbLine
 10
111.47
 20
25.15000000000002
 30
0.0
 11
118.47
 21
25.15000000000002
 31
0.0
  0
ARC
  5
30D
330
1F
100
AcDbEntity
  8
dim
100
AcDbCircle
 10
111.47
 20
26.65000000000002
 30
0.0
 40
1.5
100
AcDbArc
 50
180.0
 51
270.0
  0
ARC
  5
30E
330
1F
100
AcDbEntity
  8
dim
100
AcDbCircle
 10
125.47
 20
26.65000000000002
 30
0.0
 40
1.5
100
AcDbArc
 50
90.0
 51
180.0
  0
LINE
  5
30F
330
1F
100
AcDbEntity
  8
dim
100
AcDbLine
 10
132.47
 20
28.15000000000002
 30
0.0
 11
125.47
 21
28.15000000000002
 31
0.0
  0
ARC
  5
310
330
1F
100
AcDbEntity
  8
dim
100
AcDbCircle
 10
132.47
 20
26.65000000000002
 30
0.0
 40
1.5
100
AcDbArc
 50
0.0
 51
90.0
  0
ARC
  5
311
330
1F
100
AcDbEntity
  8
dim
100
AcDbCircle
 10
125.47
 20
26.65000000000002
 30
0.0
 40
1.5
100
AcDbArc
 50
180.0
 51
270.0
  0
LINE
  5
312
330
1F
100
AcDbEntity
  8
dim
100
AcDbLine
 10
132.47
 20
25.15000000000002
 30
0.0
 11
125.47
 21
25.15000000000002
 31
0.0
  0
ARC
  5
313
330
1F
100
AcDbEntity
  8
dim
100
AcDbCircle
 10
132.47
 20
26.65000000000002
 30
0.0
 40
1.5
100
AcDbArc
 50
270.0
 51
0.0
  0
LINE
  5
314
330
1F
100
AcDbEntity
  8
dim
100
AcDbLine
 10
123.97
 20
32.65000000000002
 30
0.0
 11
119.97
 21
32.65000000000002
 31
0.0
  0
LINE
  5
315
330
1F
100
AcDbEntity
  8
dim
100
AcDbLine
 10
127.97
 20
28.15000000000002
 30
0.0
 11
127.97
 21
31.65000000000002
 31
0.0
  0
LINE
  5
316
330
1F
100
AcDbEntity
  8
dim
100
AcDbLine
 10
127.97
 20
21.65000000000002
 30
0.0
 11
127.97
 21
25.15000000000002
 31
0.0
  0
LINE
  5
317
330
1F
100
AcDbEntity
  8
dim
100
AcDbLine
 10
119.97
 20
20.65000000000002
 30
0.0
 11
123.97
 21
20.65000000000002
 31
0.0
  0
LINE
  5
318
330
1F
100
AcDbEntity
  8
dim
100
AcDbLine
 10
115.97
 20
25.15000000000002
 30
0.0
 11
115.97
 21
21.65000000000002
 31
0.0
  0
LINE
  5
319
330
1F
100
AcDbEntity
  8
dim
100
AcDbLine
 10
115.97
 20
31.65000000000002
 30
0.0
 11
115.97
 21
28.15000000000002
 31
0.0
  0
ARC
  5
31A
330
1F
100
AcDbEntity
  8
dim
100
AcDbCircle
 10
166.97
 20
16.65000000000002
 30
0.0
 40
1.0
100
AcDbArc
 50
270.0
 51
0.0
  0
ARC
  5
31B
330
1F
100
AcDbEntity
  8
dim
100
AcDbCircle
 10
166.97
 20
36.65000000000002
 30
0.0
 40
1.0
100
AcDbArc
 50
0.0
 51
90.0
  0
LINE
  5
31C
330
1F
100
AcDbEntity
  8
dim
100
AcDbLine
 10
76.97
 20
15.65000000000002
 30
0.0
 11
166.97
 21
15.65000000000002
 31
0.0
  0
LINE
  5
31D
330
1F
100
AcDbEntity
  8
dim
100
AcDbLine
 10
166.97
 20
37.65000000000002
 30
0.0
 11
76.97
 21
37.65000000000002
 31
0.0
  0
LINE
  5
31E
330
1F
100
AcDbEntity
  8
dim
100
AcDbLine
 10
139.57
 20
20.90000000000002
 30
0.0
 11
160.47
 21
20.90000000000002
 31
0.0
  0
LINE
  5
31F
330
1F
100
AcDbEntity
  8
dim
100
AcDbLine
 10
139.57
 20
21.70000000000002
 30
0.0
 11
139.57
 21
15.65000000000002
 31
0.0
  0
LINE
  5
320
330
1F
100
AcDbEntity
  8
dim
100
AcDbLine
 10
140.07
 20
15.65000000000002
 30
0.0
 11
140.07
 21
20.90000000000002
 31
0.0
  0
LINE
  5
321
330
1F
100
AcDbEntity
  8
dim
100
AcDbLine
 10
164.72
 20
20.90000000000002
 30
0.0
 11
167.97
 21
20.90000000000002
 31
0.0
  0
LINE
  5
322
330
1F
100
AcDbEntity
  8
dim
100
AcDbLine
 10
163.47
 20
19.65000000000002
 30
0.0
 11
164.72
 21
20.90000000000002
 31
0.0
  0
LINE
  5
323
330
1F
100
AcDbEntity
  8
dim
100
AcDbLine
 10
160.47
 20
19.65000000000002
 30
0.0
 11
163.47
 21
19.65000000000002
 31
0.0
  0
LINE
  5
324
330
1F
100
AcDbEntity
  8
dim
100
AcDbLine
 10
139.57
 20
32.40000000000002
 30
0.0
 11
160.47
 21
32.40000000000002
 31
0.0
  0
LINE
  5
325
330
1F
100
AcDbEntity
  8
dim
100
AcDbLine
 10
139.57
 20
31.60000000000001
 30
0.0
 11
139.57
 21
37.65000000000002
 31
0.0
  0
LINE
  5
326
330
1F
100
AcDbEntity
  8
dim
100
AcDbLine
 10
140.07
 20
37.65000000000002
 30
0.0
 11
140.07
 21
32.40000000000002
 31
0.0
  0
LINE
  5
327
330
1F
100
AcDbEntity
  8
dim
100
AcDbLine
 10
164.72
 20
32.40000000000002
 30
0.0
 11
167.97
 21
32.40000000000002
 31
0.0
  0
LINE
  5
328
330
1F
100
AcDbEntity
  8
dim
100
AcDbLine
 10
163.47
 20
33.65000000000002
 30
0.0
 11
164.72
 21
32.40000000000002
 31
0.0
  0
LINE
  5
329
330
1F
100
AcDbEntity
  8
dim
100
AcDbLine
 10
160.47
 20
33.65000000000002
 30
0.0
 11
163.47
 21
33.65000000000002
 31
0.0
  0
LINE
  5
32A
330
1F
100
AcDbEntity
  8
dim
100
AcDbLine
 10
148.42
 20
23.10000000000001
 30
0.0
 11
148.42
 21
21.70000000000002
 31
0.0
  0
LINE
  5
32B
330
1F
100
AcDbEntity
  8
dim
100
AcDbLine
 10
150.72
 20
23.10000000000001
 30
0.0
 11
150.72
 21
21.70000000000002
 31
0.0
  0
CIRCLE
  5
32C
330
1F
100
AcDbEntity
  8
dim
100
AcDbCircle
 10
160.47
 20
26.65000000000002
 30
0.0
 40
1.75
  0
LINE
  5
32D
330
1F
100
AcDbEntity
  8
dim
100
AcDbLine
 10
158.97
 20
36.45000000000002
 30
0.0
 11
165.97
 21
36.45000000000002
 31
0.0
  0
LINE
  5
32E
330
1F
100
AcDbEntity
  8
dim
100
AcDbLine
 10
158.97
 20
35.25000000000001
 30
0.0
 11
165.97
 21
35.25000000000001
 31
0.0
  0
LINE
  5
32F
330
1F
100
AcDbEntity
  8
dim
100
AcDbLine
 10
158.97
 20
36.45000000000002
 30
0.0
 11
158.97
 21
35.25000000000001
 31
0.0
  0
LINE
  5
330
330
1F
100
AcDbEntity
  8
dim
100
AcDbLine
 10
165.97
 20
36.45000000000002
 30
0.0
 11
165.97
 21
35.25000000000001
 31
0.0
  0
LINE
  5
331
330
1F
100
AcDbEntity
  8
dim
100
AcDbLine
 10
158.97
 20
16.85000000000001
 30
0.0
 11
165.97
 21
16.85000000000001
 31
0.0
  0
LINE
  5
332
330
1F
100
AcDbEntity
  8
dim
100
AcDbLine
 10
158.97
 20
18.05000000000001
 30
0.0
 11
165.97
 21
18.05000000000001
 31
0.0
  0
LINE
  5
333
330
1F
100
AcDbEntity
  8
dim
100
AcDbLine
 10
158.97
 20
16.85000000000001
 30
0.0
 11
158.97
 21
18.05000000000001
 31
0.0
  0
LINE
  5
334
330
1F
100
AcDbEntity
  8
dim
100
AcDbLine
 10
165.97
 20
16.85000000000001
 30
0.0
 11
165.97
 21
18.05000000000001
 31
0.0
  0
LINE
  5
335
330
1F
100
AcDbEntity
  8
dim
100
AcDbLine
 10
150.62
 20
36.45000000000002
 30
0.0
 11
157.62
 21
36.45000000000002
 31
0.0
  0
LINE
  5
336
330
1F
100
AcDbEntity
  8
dim
100
AcDbLine
 10
150.62
 20
35.25000000000001
 30
0.0
 11
157.62
 21
35.25000000000001
 31
0.0
  0
LINE
  5
337
330
1F
100
AcDbEntity
  8
dim
100
AcDbLine
 10
157.62
 20
36.45000000000002
 30
0.0
 11
157.62
 21
35.10000000000001
 31
0.0
  0
LINE
  5
338
330
1F
100
AcDbEntity
  8
dim
100
AcDbLine
 10
150.62
 20
36.45000000000002
 30
0.0
 11
150.62
 21
35.25000000000001
 31
0.0
  0
LINE
  5
339
330
1F
100
AcDbEntity
  8
dim
100
AcDbLine
 10
142.27
 20
36.45000000000002
 30
0.0
 11
149.27
 21
36.45000000000002
 31
0.0
  0
LINE
  5
33A
330
1F
100
AcDbEntity
  8
dim
100
AcDbLine
 10
142.27
 20
35.25000000000001
 30
0.0
 11
149.27
 21
35.25000000000001
 31
0.0
  0
LINE
  5
33B
330
1F
100
AcDbEntity
  8
dim
100
AcDbLine
 10
149.27
 20
36.45000000000002
 30
0.0
 11
149.27
 21
35.25000000000001
 31
0.0
  0
LINE
  5
33C
330
1F
100
AcDbEntity
  8
dim
100
AcDbLine
 10
142.27
 20
36.45000000000002
 30
0.0
 11
142.27
 21
35.25000000000001
 31
0.0
  0
LINE
  5
33D
330
1F
100
AcDbEntity
  8
dim
100
AcDbLine
 10
150.62
 20
16.85000000000001
 30
0.0
 11
157.62
 21
16.85000000000001
 31
0.0
  0
LINE
  5
33E
330
1F
100
AcDbEntity
  8
dim
100
AcDbLine
 10
150.62
 20
18.05000000000001
 30
0.0
 11
157.62
 21
18.05000000000001
 31
0.0
  0
LINE
  5
33F
330
1F
100
AcDbEntity
  8
dim
100
AcDbLine
 10
157.62
 20
16.85000000000001
 30
0.0
 11
157.62
 21
18.20000000000002
 31
0.0
  0
LINE
  5
340
330
1F
100
AcDbEntity
  8
dim
100
AcDbLine
 10
150.62
 20
16.85000000000001
 30
0.0
 11
150.62
 21
18.05000000000001
 31
0.0
  0
LINE
  5
341
330
1F
100
AcDbEntity
  8
dim
100
AcDbLine
 10
142.27
 20
16.85000000000001
 30
0.0
 11
149.27
 21
16.85000000000001
 31
0.0
  0
LINE
  5
342
330
1F
100
AcDbEntity
  8
dim
100
AcDbLine
 10
142.27
 20
18.05000000000001
 30
0.0
 11
149.27
 21
18.05000000000001
 31
0.0
  0
LINE
  5
343
330
1F
100
AcDbEntity
  8
dim
100
AcDbLine
 10
149.27
 20
16.85000000000001
 30
0.0
 11
149.27
 21
18.05000000000001
 31
0.0
  0
LINE
  5
344
330
1F
100
AcDbEntity
  8
dim
100
AcDbLine
 10
142.27
 20
16.85000000000001
 30
0.0
 11
142.27
 21
18.05000000000001
 31
0.0
  0
LINE
  5
345
330
1F
100
AcDbEntity
  8
dim
100
AcDbLine
 10
138.97
 20
33.55000000000001
 30
0.0
 11
138.97
 21
19.75000000000001
 31
0.0
  0
LINE
  5
346
330
1F
100
AcDbEntity
  8
dim
100
AcDbLine
 10
138.97
 20
20.95000000000002
 30
0.0
 11
171.47
 21
20.95000000000002
 31
0.0
  0
LINE
  5
347
330
1F
100
AcDbEntity
  8
dim
100
AcDbLine
 10
138.97
 20
32.35000000000001
 30
0.0
 11
171.47
 21
32.35000000000001
 31
0.0
  0
LINE
  5
348
330
1F
100
AcDbEntity
  8
dim
100
AcDbLine
 10
141.97
 20
20.95000000000002
 30
0.0
 11
141.97
 21
32.35000000000001
 31
0.0
  0
ARC
  5
349
330
1F
100
AcDbEntity
  8
dim
100
AcDbCircle
 10
172.07
 20
21.95000000000002
 30
0.0
 40
1.0
100
AcDbArc
 50
270.0
 51
0.0
  0
ARC
  5
34A
330
1F
100
AcDbEntity
  8
dim
100
AcDbCircle
 10
172.07
 20
31.35000000000001
 30
0.0
 40
1.0
100
AcDbArc
 50
0.0
 51
90.0
  0
LINE
  5
34B
330
1F
100
AcDbEntity
  8
dim
100
AcDbLine
 10
173.07
 20
31.35000000000001
 30
0.0
 11
173.07
 21
21.95000000000002
 31
0.0
  0
LINE
  5
34C
330
1F
100
AcDbEntity
  8
dim
100
AcDbLine
 10
172.07
 20
20.95000000000002
 30
0.0
 11
171.47
 21
20.95000000000002
 31
0.0
  0
LINE
  5
34D
330
1F
100
AcDbEntity
  8
dim
100
AcDbLine
 10
171.47
 20
32.35000000000001
 30
0.0
 11
172.07
 21
32.35000000000001
 31
0.0
  0
ARC
  5
34E
330
1F
100
AcDbEntity
  8
dim
100
AcDbCircle
 10
144.57
 20
26.65000000000002
 30
0.0
 40
2.0
100
AcDbArc
 50
90.0
 51
270.0
  0
LINE
  5
34F
330
1F
100
AcDbEntity
  8
dim
100
AcDbLine
 10
145.77
 20
21.55000000000001
 30
0.0
 11
145.77
 21
24.65000000000002
 31
0.0
  0
ARC
  5
350
330
1F
100
AcDbEntity
  8
dim
100
AcDbCircle
 10
149.57
 20
26.65000000000002
 30
0.0
 40
5.099999999999994
100
AcDbArc
 50
270.0
 51
90.0
  0
LINE
  5
351
330
1F
100
AcDbEntity
  8
dim
100
AcDbLine
 10
149.57
 20
21.55000000000001
 30
0.0
 11
145.77
 21
21.55000000000001
 31
0.0
  0
LINE
  5
352
330
1F
100
AcDbEntity
  8
dim
100
AcDbLine
 10
145.77
 20
28.65000000000002
 30
0.0
 11
144.57
 21
28.65000000000002
 31
0.0
  0
LINE
  5
353
330
1F
100
AcDbEntity
  8
dim
100
AcDbLine
 10
144.57
 20
24.65000000000002
 30
0.0
 11
145.77
 21
24.65000000000002
 31
0.0
  0
LINE
  5
354
330
1F
100
AcDbEntity
  8
dim
100
AcDbLine
 10
144.57
 20
24.65000000000002
 30
0.0
 11
145.77
 21
24.65000000000002
 31
0.0
  0
ARC
  5
355
330
1F
100
AcDbEntity
  8
dim
100
AcDbCircle
 10
152.27
 20
28.15000000000002
 30
0.0
 40
1.999999999999992
100
AcDbArc
 50
30.00000000000014
 51
180.0000000000001
  0
LINE
  5
356
330
1F
100
AcDbEntity
  8
dim
100
AcDbLine
 10
146.77
 20
28.65000000000002
 30
0.0
 11
145.77
 21
28.65000000000002
 31
0.0
  0
LINE
  5
357
330
1F
100
AcDbEntity
  8
dim
100
AcDbLine
 10
146.77
 20
28.65000000000002
 30
0.0
 11
146.77
 21
31.75000000000001
 31
0.0
  0
LINE
  5
358
330
1F
100
AcDbEntity
  8
dim
100
AcDbLine
 10
146.77
 20
31.75000000000001
 30
0.0
 11
149.57
 21
31.75000000000001
 31
0.0
  0
LINE
  5
359
330
1F
100
AcDbEntity
  8
dim
100
AcDbLine
 10
145.77
 20
28.65000000000002
 30
0.0
 11
145.77
 21
28.65000000000002
 31
0.0
  0
ARC
  5
35A
330
1F
100
AcDbEntity
  8
dim
100
AcDbCircle
 10
146.87
 20
28.15000000000002
 30
0.0
 40
2.0
100
AcDbArc
 50
0.0
 51
92.0
  0
LINE
  5
35B
330
1F
100
AcDbEntity
  8
dim
100
AcDbLine
 10
148.87
 20
28.15000000000002
 30
0.0
 11
148.87
 21
23.95000000000002
 31
0.0
  0
LINE
  5
35C
330
1F
100
AcDbEntity
  8
dim
100
AcDbLine
 10
150.27
 20
23.95000000000002
 30
0.0
 11
150.27
 21
28.15000000000002
 31
0.0
  0
ARC
  5
35D
330
1F
100
AcDbEntity
  8
dim
100
AcDbCircle
 10
149.57
 20
23.15000000000002
 30
0.0
 40
1.100000000000008
100
AcDbArc
 50
131.1859251660004
 51
48.81407483400042
  0
ARC
  5
35E
330
1F
100
AcDbEntity
  8
dim
100
AcDbCircle
 10
160.47
 20
26.65000000000002
 30
0.0
 40
1.900000000000006
100
AcDbArc
 50
270.0
 51
90.0
  0
ARC
  5
35F
330
1F
100
AcDbEntity
  8
dim
100
AcDbCircle
 10
158.77
 20
26.65000000000002
 30
0.0
 40
1.900000000000006
100
AcDbArc
 50
90.0
 51
270.0
  0
LINE
  5
360
330
1F
100
AcDbEntity
  8
dim
100
AcDbLine
 10
158.77
 20
24.75000000000001
 30
0.0
 11
160.47
 21
24.75000000000001
 31
0.0
  0
LINE
  5
361
330
1F
100
AcDbEntity
  8
dim
100
AcDbLine
 10
160.47
 20
28.55000000000001
 30
0.0
 11
158.77
 21
28.55000000000001
 31
0.0
  0
LINE
  5
362
330
1F
100
AcDbEntity
  8
dim
100
AcDbLine
 10
167.97
 20
32.40000000000002
 30
0.0
 11
167.97
 21
36.65000000000002
 31
0.0
  0
LINE
  5
363
330
1F
100
AcDbEntity
  8
dim
100
AcDbLine
 10
167.97
 20
16.65000000000002
 30
0.0
 11
167.97
 21
20.90000000000002
 31
0.0
  0
ARC
  5
364
330
1F
100
AcDbEntity
  8
dim
100
AcDbCircle
 10
149.57
 20
23.10000000000001
 30
0.0
 40
1.150000000000005
100
AcDbArc
 50
129.4724598480001
 51
180.0000000000001
  0
ARC
  5
365
330
1F
100
AcDbEntity
  8
dim
100
AcDbCircle
 10
149.57
 20
23.10000000000001
 30
0.0
 40
1.150000000000006
100
AcDbArc
 50
0.0
 51
50.527540152
  0
LINE
  5
366
330
1F
100
AcDbEntity
  8
dim
100
AcDbLine
 10
160.47
 20
20.90000000000002
 30
0.0
 11
160.47
 21
19.65000000000002
 31
0.0
  0
LINE
  5
367
330
1F
100
AcDbEntity
  8
dim
100
AcDbLine
 10
145.77
 20
21.70000000000002
 30
0.0
 11
148.42
 21
21.70000000000002
 31
0.0
  0
LINE
  5
368
330
1F
100
AcDbEntity
  8
dim
100
AcDbLine
 10
139.57
 20
20.90000000000002
 30
0.0
 11
139.57
 21
33.55000000000001
 31
0.0
  0
LINE
  5
369
330
1F
100
AcDbEntity
  8
dim
100
AcDbLine
 10
139.57
 20
19.75000000000001
 30
0.0
 11
138.97
 21
19.75000000000001
 31
0.0
  0
LINE
  5
36A
330
1F
100
AcDbEntity
  8
dim
100
AcDbLine
 10
160.47
 20
20.95000000000002
 30
0.0
 11
160.42
 21
20.90000000000002
 31
0.0
  0
LINE
  5
36B
330
1F
100
AcDbEntity
  8
dim
100
AcDbLine
 10
160.47
 20
32.40000000000002
 30
0.0
 11
160.47
 21
33.65000000000002
 31
0.0
  0
LINE
  5
36C
330
1F
100
AcDbEntity
  8
dim
100
AcDbLine
 10
160.47
 20
32.35000000000001
 30
0.0
 11
160.42
 21
32.40000000000002
 31
0.0
  0
LINE
  5
36D
330
1F
100
AcDbEntity
  8
dim
100
AcDbLine
 10
139.57
 20
33.55000000000001
 30
0.0
 11
138.97
 21
33.55000000000001
 31
0.0
  0
LINE
  5
36E
330
1F
100
AcDbEntity
  8
dim
100
AcDbLine
 10
243.94
 20
146.07
 30
0.0
 11
243.94
 21
171.07
 31
0.0
  0
LINE
  5
36F
330
1F
100
AcDbEntity
  8
dim
100
AcDbLine
 10
217.890002697
 20
148.07
 30
0.0
 11
225.14
 21
148.07
 31
0.0
  0
LINE
  5
370
330
1F
100
AcDbEntity
  8
dim
100
AcDbLine
 10
204.14
 20
146.07
 30
0.0
 11
243.94
 21
146.07
 31
0.0
  0
LINE
  5
371
330
1F
100
AcDbEntity
  8
dim
100
AcDbLine
 10
216.890002697
 20
148.07
 30
0.0
 11
203.14
 21
148.07
 31
0.0
  0
LINE
  5
372
330
1F
100
AcDbEntity
  8
dim
100
AcDbLine
 10
203.14
 20
148.07
 30
0.0
 11
217.977250994
 21
148.07
 31
0.0
  0
LINE
  5
373
330
1F
100
AcDbEntity
  8
dim
100
AcDbLine
 10
243.94
 20
171.07
 30
0.0
 11
204.14
 21
171.07
 31
0.0
  0
LINE
  5
374
330
1F
100
AcDbEntity
  8
dim
100
AcDbLine
 10
243.94
 20
164.32
 30
0.0
 11
239.44
 21
164.32
 31
0.0
  0
LINE
  5
375
330
1F
100
AcDbEntity
  8
dim
100
AcDbLine
 10
239.44
 20
164.32
 30
0.0
 11
239.44
 21
158.57
 31
0.0
  0
LINE
  5
376
330
1F
100
AcDbEntity
  8
dim
100
AcDbLine
 10
243.94
 20
152.82
 30
0.0
 11
239.44
 21
152.82
 31
0.0
  0
LINE
  5
377
330
1F
100
AcDbEntity
  8
dim
100
AcDbLine
 10
239.44
 20
152.82
 30
0.0
 11
239.44
 21
158.57
 31
0.0
  0
LINE
  5
378
330
1F
100
AcDbEntity
  8
dim
100
AcDbLine
 10
217.890002697
 20
148.07
 30
0.0
 11
225.14
 21
148.07
 31
0.0
  0
LINE
  5
379
330
1F
100
AcDbEntity
  8
dim
100
AcDbLine
 10
206.39
 20
148.07
 30
0.0
 11
217.890002697
 21
148.07
 31
0.0
  0
LINE
  5
37A
330
1F
100
AcDbEntity
  8
dim
100
AcDbLine
 10
216.890002697
 20
148.07
 30
0.0
 11
203.14
 21
148.07
 31
0.0
  0
LINE
  5
37B
330
1F
100
AcDbEntity
  8
dim
100
AcDbLine
 10
225.14
 20
148.17
 30
0.0
 11
225.14
 21
153.62
 31
0.0
  0
LINE
  5
37C
330
1F
100
AcDbEntity
  8
dim
100
AcDbLine
 10
225.14
 20
157.17
 30
0.0
 11
225.14
 21
159.97
 31
0.0
  0
LINE
  5
37D
330
1F
100
AcDbEntity
  8
dim
100
AcDbLine
 10
225.14
 20
153.62
 30
0.0
 11
225.14
 21
155.47
 31
0.0
  0
LINE
  5
37E
330
1F
100
AcDbEntity
  8
dim
100
AcDbLine
 10
216.14
 20
152.67
 30
0.0
 11
209.64
 21
152.67
 31
0.0
  0
LINE
  5
37F
330
1F
100
AcDbEntity
  8
dim
100
AcDbLine
 10
225.14
 20
164.47
 30
0.0
 11
225.14
 21
159.97
 31
0.0
  0
LINE
  5
380
330
1F
100
AcDbEntity
  8
dim
100
AcDbLine
 10
218.64
 20
171.07
 30
0.0
 11
218.64
 21
169.07
 31
0.0
  0
LINE
  5
381
330
1F
100
AcDbEntity
  8
dim
100
AcDbLine
 10
218.64
 20
169.07
 30
0.0
 11
203.14
 21
169.07
 31
0.0
  0
LINE
  5
382
330
1F
100
AcDbEntity
  8
dim
100
AcDbLine
 10
225.14
 20
164.47
 30
0.0
 11
218.64
 21
164.47
 31
0.0
  0
LINE
  5
383
330
1F
100
AcDbEntity
  8
dim
100
AcDbLine
 10
218.64
 20
164.47
 30
0.0
 11
218.64
 21
169.07
 31
0.0
  0
LINE
  5
384
330
1F
100
AcDbEntity
  8
dim
100
AcDbLine
 10
218.64
 20
148.07
 30
0.0
 11
218.64
 21
146.07
 31
0.0
  0
LINE
  5
385
330
1F
100
AcDbEntity
  8
dim
100
AcDbLine
 10
225.14
 20
157.17
 30
0.0
 11
218.64
 21
157.17
 31
0.0
  0
LINE
  5
386
330
1F
100
AcDbEntity
  8
dim
100
AcDbLine
 10
225.14
 20
155.47
 30
0.0
 11
218.64
 21
155.47
 31
0.0
  0
LINE
  5
387
330
1F
100
AcDbEntity
  8
dim
100
AcDbLine
 10
218.64
 20
155.47
 30
0.0
 11
218.64
 21
157.17
 31
0.0
  0
LINE
  5
388
330
1F
100
AcDbEntity
  8
dim
100
AcDbLine
 10
216.14
 20
169.07
 30
0.0
 11
216.14
 21
161.67
 31
0.0
  0
LINE
  5
389
330
1F
100
AcDbEntity
  8
dim
100
AcDbLine
 10
216.14
 20
159.97
 30
0.0
 11
216.14
 21
152.67
 31
0.0
  0
LINE
  5
38A
330
1F
100
AcDbEntity
  8
dim
100
AcDbLine
 10
224.140004988
 20
157.32
 30
0.0
 11
224.140004988
 21
164.32
 31
0.0
  0
LINE
  5
38B
330
1F
100
AcDbEntity
  8
dim
100
AcDbLine
 10
224.140004988
 20
157.32
 30
0.0
 11
224.140004988
 21
164.32
 31
0.0
  0
LINE
  5
38C
330
1F
100
AcDbEntity
  8
dim
100
AcDbLine
 10
221.640004988
 20
157.92
 30
0.0
 11
220.640004988
 21
157.92
 31
0.0
  0
LINE
  5
38D
330
1F
100
AcDbEntity
  8
dim
100
AcDbLine
 10
221.640004988
 20
160.82
 30
0.0
 11
222.540004988
 21
160.22
 31
0.0
  0
LINE
  5
38E
330
1F
100
AcDbEntity
  8
dim
100
AcDbLine
 10
221.640004988
 20
161.42
 30
0.0
 11
222.540004988
 21
160.82
 31
0.0
  0
LINE
  5
38F
330
1F
100
AcDbEntity
  8
dim
100
AcDbLine
 10
221.640004988
 20
157.92
 30
0.0
 11
222.540004988
 21
157.92
 31
0.0
  0
LINE
  5
390
330
1F
100
AcDbEntity
  8
dim
100
AcDbLine
 10
221.640004988
 20
163.72
 30
0.0
 11
222.540004988
 21
163.72
 31
0.0
  0
LINE
  5
391
330
1F
100
AcDbEntity
  8
dim
100
AcDbLine
 10
221.640004988
 20
157.92
 30
0.0
 11
221.640004988
 21
163.72
 31
0.0
  0
LINE
  5
392
330
1F
100
AcDbEntity
  8
dim
100
AcDbLine
 10
219.640004988
 20
158.92
 30
0.0
 11
219.640004988
 21
160.82
 31
0.0
  0
ARC
  5
393
330
1F
100
AcDbEntity
  8
dim
100
AcDbCircle
 10
220.640004988
 20
158.92
 30
0.0
 40
1.0
100
AcDbArc
 50
180.0
 51
270.0
  0
LINE
  5
394
330
1F
100
AcDbEntity
  8
dim
100
AcDbLine
 10
219.640004988
 20
162.72
 30
0.0
 11
219.640004988
 21
160.82
 31
0.0
  0
ARC
  5
395
330
1F
100
AcDbEntity
  8
dim
100
AcDbCircle
 10
220.640004988
 20
162.72
 30
0.0
 40
1.0
100
AcDbArc
 50
90.0
 51
180.0
  0
LINE
  5
396
330
1F
100
AcDbEntity
  8
dim
100
AcDbLine
 10
221.640004988
 20
163.72
 30
0.0
 11
220.640004988
 21
163.72
 31
0.0
  0
LINE
  5
397
330
1F
100
AcDbEntity
  8
dim
100
AcDbLine
 10
219.640004988
 20
162.72
 30
0.0
 11
219.640004988
 21
160.82
 31
0.0
  0
ARC
  5
398
330
1F
100
AcDbEntity
  8
dim
100
AcDbCircle
 10
220.640004988
 20
162.72
 30
0.0
 40
1.0
100
AcDbArc
 50
90.0
 51
180.0
  0
LINE
  5
399
330
1F
100
AcDbEntity
  8
dim
100
AcDbLine
 10
219.640004988
 20
158.92
 30
0.0
 11
219.640004988
 21
160.82
 31
0.0
  0
ARC
  5
39A
330
1F
100
AcDbEntity
  8
dim
100
AcDbCircle
 10
220.640004988
 20
158.92
 30
0.0
 40
1.0
100
AcDbArc
 50
180.0
 51
270.0
  0
LINE
  5
39B
330
1F
100
AcDbEntity
  8
dim
100
AcDbLine
 10
223.540004988
 20
164.32
 30
0.0
 11
224.140004988
 21
164.32
 31
0.0
  0
LINE
  5
39C
330
1F
100
AcDbEntity
  8
dim
100
AcDbLine
 10
224.140004988
 20
164.32
 30
0.0
 11
223.540004988
 21
162.17
 31
0.0
  0
LINE
  5
39D
330
1F
100
AcDbEntity
  8
dim
100
AcDbLine
 10
223.540004988
 20
163.42
 30
0.0
 11
224.140004988
 21
164.32
 31
0.0
  0
LINE
  5
39E
330
1F
100
AcDbEntity
  8
dim
100
AcDbLine
 10
223.540004988
 20
157.32
 30
0.0
 11
224.140004988
 21
157.32
 31
0.0
  0
LINE
  5
39F
330
1F
100
AcDbEntity
  8
dim
100
AcDbLine
 10
224.140004988
 20
157.32
 30
0.0
 11
223.540004988
 21
159.47
 31
0.0
  0
LINE
  5
3A0
330
1F
100
AcDbEntity
  8
dim
100
AcDbLine
 10
223.540004988
 20
158.22
 30
0.0
 11
224.140004988
 21
157.32
 31
0.0
  0
LINE
  5
3A1
330
1F
100
AcDbEntity
  8
dim
100
AcDbLine
 10
222.540004988
 20
163.92
 30
0.0
 11
222.540004988
 21
160.82
 31
0.0
  0
LWPOLYLINE
  5
3A2
330
1F
100
AcDbEntity
  8
dim
100
AcDbPolyline
 90
        3
 70
     0
 43
0.0
 10
223.540004988
 20
164.32
 10
223.040004988
 20
164.32
 10
222.540004988
 20
163.92
  0
LINE
  5
3A3
330
1F
100
AcDbEntity
  8
dim
100
AcDbLine
 10
223.540004988
 20
157.32
 30
0.0
 11
223.040004988
 21
157.32
 31
0.0
  0
LINE
  5
3A4
330
1F
100
AcDbEntity
  8
dim
100
AcDbLine
 10
222.540004988
 20
157.72
 30
0.0
 11
222.540004988
 21
160.82
 31
0.0
  0
LINE
  5
3A5
330
1F
100
AcDbEntity
  8
dim
100
AcDbLine
 10
223.040004988
 20
157.32
 30
0.0
 11
222.540004988
 21
157.72
 31
0.0
  0
LINE
  5
3A6
330
1F
100
AcDbEntity
  8
dim
100
AcDbLine
 10
223.540004988
 20
161.32
 30
0.0
 11
224.040004988
 21
161.32
 31
0.0
  0
LINE
  5
3A7
330
1F
100
AcDbEntity
  8
dim
100
AcDbLine
 10
224.040004988
 20
161.32
 30
0.0
 11
224.040004988
 21
160.32
 31
0.0
  0
LINE
  5
3A8
330
1F
100
AcDbEntity
  8
dim
100
AcDbLine
 10
224.040004988
 20
160.32
 30
0.0
 11
223.540004988
 21
160.32
 31
0.0
  0
LINE
  5
3A9
330
1F
100
AcDbEntity
  8
dim
100
AcDbLine
 10
223.540004988
 20
161.32
 30
0.0
 11
223.540004988
 21
163.42
 31
0.0
  0
LINE
  5
3AA
330
1F
100
AcDbEntity
  8
dim
100
AcDbLine
 10
223.540004988
 20
158.22
 30
0.0
 11
223.540004988
 21
160.32
 31
0.0
  0
LINE
  5
3AB
330
1F
100
AcDbEntity
  8
dim
100
AcDbLine
 10
216.14
 20
161.77
 30
0.0
 11
216.14
 21
164.57
 31
0.0
  0
LINE
  5
3AC
330
1F
100
AcDbEntity
  8
dim
100
AcDbLine
 10
216.14
 20
169.07
 30
0.0
 11
216.14
 21
164.57
 31
0.0
  0
LINE
  5
3AD
330
1F
100
AcDbEntity
  8
dim
100
AcDbLine
 10
215.140004988
 20
161.92
 30
0.0
 11
215.140004988
 21
168.92
 31
0.0
  0
LINE
  5
3AE
330
1F
100
AcDbEntity
  8
dim
100
AcDbLine
 10
215.140004988
 20
161.92
 30
0.0
 11
215.140004988
 21
168.92
 31
0.0
  0
LINE
  5
3AF
330
1F
100
AcDbEntity
  8
dim
100
AcDbLine
 10
212.640004988
 20
162.52
 30
0.0
 11
211.640004988
 21
162.52
 31
0.0
  0
LINE
  5
3B0
330
1F
100
AcDbEntity
  8
dim
100
AcDbLine
 10
212.640004988
 20
165.42
 30
0.0
 11
213.540004988
 21
164.82
 31
0.0
  0
LINE
  5
3B1
330
1F
100
AcDbEntity
  8
dim
100
AcDbLine
 10
212.640004988
 20
166.02
 30
0.0
 11
213.540004988
 21
165.42
 31
0.0
  0
LINE
  5
3B2
330
1F
100
AcDbEntity
  8
dim
100
AcDbLine
 10
212.640004988
 20
162.52
 30
0.0
 11
213.540004988
 21
162.52
 31
0.0
  0
LINE
  5
3B3
330
1F
100
AcDbEntity
  8
dim
100
AcDbLine
 10
212.640004988
 20
168.32
 30
0.0
 11
213.540004988
 21
168.32
 31
0.0
  0
LINE
  5
3B4
330
1F
100
AcDbEntity
  8
dim
100
AcDbLine
 10
212.640004988
 20
162.52
 30
0.0
 11
212.640004988
 21
168.32
 31
0.0
  0
LINE
  5
3B5
330
1F
100
AcDbEntity
  8
dim
100
AcDbLine
 10
210.640004988
 20
163.52
 30
0.0
 11
210.640004988
 21
165.42
 31
0.0
  0
ARC
  5
3B6
330
1F
100
AcDbEntity
  8
dim
100
AcDbCircle
 10
211.640004988
 20
163.52
 30
0.0
 40
1.0
100
AcDbArc
 50
180.0
 51
270.0
  0
LINE
  5
3B7
330
1F
100
AcDbEntity
  8
dim
100
AcDbLine
 10
210.640004988
 20
167.32
 30
0.0
 11
210.640004988
 21
165.42
 31
0.0
  0
ARC
  5
3B8
330
1F
100
AcDbEntity
  8
dim
100
AcDbCircle
 10
211.640004988
 20
167.32
 30
0.0
 40
1.0
100
AcDbArc
 50
90.0
 51
180.0
  0
LINE
  5
3B9
330
1F
100
AcDbEntity
  8
dim
100
AcDbLine
 10
212.640004988
 20
168.32
 30
0.0
 11
211.640004988
 21
168.32
 31
0.0
  0
LINE
  5
3BA
330
1F
100
AcDbEntity
  8
dim
100
AcDbLine
 10
210.640004988
 20
167.32
 30
0.0
 11
210.640004988
 21
165.42
 31
0.0
  0
ARC
  5
3BB
330
1F
100
AcDbEntity
  8
dim
100
AcDbCircle
 10
211.640004988
 20
167.32
 30
0.0
 40
1.0
100
AcDbArc
 50
90.0
 51
180.0
  0
LINE
  5
3BC
330
1F
100
AcDbEntity
  8
dim
100
AcDbLine
 10
210.640004988
 20
163.52
 30
0.0
 11
210.640004988
 21
165.42
 31
0.0
  0
ARC
  5
3BD
330
1F
100
AcDbEntity
  8
dim
100
AcDbCircle
 10
211.640004988
 20
163.52
 30
0.0
 40
1.0
100
AcDbArc
 50
180.0
 51
270.0
  0
LINE
  5
3BE
330
1F
100
AcDbEntity
  8
dim
100
AcDbLine
 10
214.540004988
 20
168.92
 30
0.0
 11
215.140004988
 21
168.92
 31
0.0
  0
LINE
  5
3BF
330
1F
100
AcDbEntity
  8
dim
100
AcDbLine
 10
215.140004988
 20
168.92
 30
0.0
 11
214.540004988
 21
166.77
 31
0.0
  0
LINE
  5
3C0
330
1F
100
AcDbEntity
  8
dim
100
AcDbLine
 10
214.540004988
 20
168.02
 30
0.0
 11
215.140004988
 21
168.92
 31
0.0
  0
LINE
  5
3C1
330
1F
100
AcDbEntity
  8
dim
100
AcDbLine
 10
214.540004988
 20
161.92
 30
0.0
 11
215.140004988
 21
161.92
 31
0.0
  0
LINE
  5
3C2
330
1F
100
AcDbEntity
  8
dim
100
AcDbLine
 10
215.140004988
 20
161.92
 30
0.0
 11
214.540004988
 21
164.07
 31
0.0
  0
LINE
  5
3C3
330
1F
100
AcDbEntity
  8
dim
100
AcDbLine
 10
214.540004988
 20
162.82
 30
0.0
 11
215.140004988
 21
161.92
 31
0.0
  0
LINE
  5
3C4
330
1F
100
AcDbEntity
  8
dim
100
AcDbLine
 10
213.540004988
 20
168.52
 30
0.0
 11
213.540004988
 21
165.42
 31
0.0
  0
LWPOLYLINE
  5
3C5
330
1F
100
AcDbEntity
  8
dim
100
AcDbPolyline
 90
        3
 70
     0
 43
0.0
 10
214.540004988
 20
168.92
 10
214.040004988
 20
168.92
 10
213.540004988
 20
168.52
  0
LINE
  5
3C6
330
1F
100
AcDbEntity
  8
dim
100
AcDbLine
 10
214.540004988
 20
161.92
 30
0.0
 11
214.040004988
 21
161.92
 31
0.0
  0
LINE
  5
3C7
330
1F
100
AcDbEntity
  8
dim
100
AcDbLine
 10
213.540004988
 20
162.32
 30
0.0
 11
213.540004988
 21
165.42
 31
0.0
  0
LINE
  5
3C8
330
1F
100
AcDbEntity
  8
dim
100
AcDbLine
 10
214.040004988
 20
161.92
 30
0.0
 11
213.540004988
 21
162.32
 31
0.0
  0
LINE
  5
3C9
330
1F
100
AcDbEntity
  8
dim
100
AcDbLine
 10
214.540004988
 20
165.92
 30
0.0
 11
215.040004988
 21
165.92
 31
0.0
  0
LINE
  5
3CA
330
1F
100
AcDbEntity
  8
dim
100
AcDbLine
 10
215.040004988
 20
165.92
 30
0.0
 11
215.040004988
 21
164.92
 31
0.0
  0
LINE
  5
3CB
330
1F
100
AcDbEntity
  8
dim
100
AcDbLine
 10
215.040004988
 20
164.92
 30
0.0
 11
214.540004988
 21
164.92
 31
0.0
  0
LINE
  5
3CC
330
1F
100
AcDbEntity
  8
dim
100
AcDbLine
 10
214.540004988
 20
165.92
 30
0.0
 11
214.540004988
 21
168.02
 31
0.0
  0
LINE
  5
3CD
330
1F
100
AcDbEntity
  8
dim
100
AcDbLine
 10
214.540004988
 20
162.82
 30
0.0
 11
214.540004988
 21
164.92
 31
0.0
  0
LINE
  5
3CE
330
1F
100
AcDbEntity
  8
dim
100
AcDbLine
 10
216.14
 20
159.97
 30
0.0
 11
216.14
 21
152.57
 31
0.0
  0
LINE
  5
3CF
330
1F
100
AcDbEntity
  8
dim
100
AcDbLine
 10
216.14
 20
152.67
 30
0.0
 11
216.14
 21
155.47
 31
0.0
  0
LINE
  5
3D0
330
1F
100
AcDbEntity
  8
dim
100
AcDbLine
 10
216.14
 20
159.97
 30
0.0
 11
216.14
 21
155.47
 31
0.0
  0
LINE
  5
3D1
330
1F
100
AcDbEntity
  8
dim
100
AcDbLine
 10
215.140004988
 20
152.82
 30
0.0
 11
215.140004988
 21
159.82
 31
0.0
  0
LINE
  5
3D2
330
1F
100
AcDbEntity
  8
dim
100
AcDbLine
 10
215.140004988
 20
152.82
 30
0.0
 11
215.140004988
 21
159.82
 31
0.0
  0
LINE
  5
3D3
330
1F
100
AcDbEntity
  8
dim
100
AcDbLine
 10
212.640004988
 20
153.42
 30
0.0
 11
211.640004988
 21
153.42
 31
0.0
  0
LINE
  5
3D4
330
1F
100
AcDbEntity
  8
dim
100
AcDbLine
 10
212.640004988
 20
156.32
 30
0.0
 11
213.540004988
 21
155.72
 31
0.0
  0
LINE
  5
3D5
330
1F
100
AcDbEntity
  8
dim
100
AcDbLine
 10
212.640004988
 20
156.92
 30
0.0
 11
213.540004988
 21
156.32
 31
0.0
  0
LINE
  5
3D6
330
1F
100
AcDbEntity
  8
dim
100
AcDbLine
 10
212.640004988
 20
153.42
 30
0.0
 11
213.540004988
 21
153.42
 31
0.0
  0
LINE
  5
3D7
330
1F
100
AcDbEntity
  8
dim
100
AcDbLine
 10
212.640004988
 20
159.22
 30
0.0
 11
213.540004988
 21
159.22
 31
0.0
  0
LINE
  5
3D8
330
1F
100
AcDbEntity
  8
dim
100
AcDbLine
 10
212.640004988
 20
153.42
 30
0.0
 11
212.640004988
 21
159.22
 31
0.0
  0
LINE
  5
3D9
330
1F
100
AcDbEntity
  8
dim
100
AcDbLine
 10
210.640004988
 20
154.42
 30
0.0
 11
210.640004988
 21
156.32
 31
0.0
  0
ARC
  5
3DA
330
1F
100
AcDbEntity
  8
dim
100
AcDbCircle
 10
211.640004988
 20
154.42
 30
0.0
 40
1.0
100
AcDbArc
 50
180.0
 51
270.0
  0
LINE
  5
3DB
330
1F
100
AcDbEntity
  8
dim
100
AcDbLine
 10
210.640004988
 20
158.22
 30
0.0
 11
210.640004988
 21
156.32
 31
0.0
  0
ARC
  5
3DC
330
1F
100
AcDbEntity
  8
dim
100
AcDbCircle
 10
211.640004988
 20
158.22
 30
0.0
 40
1.0
100
AcDbArc
 50
90.0
 51
180.0
  0
LINE
  5
3DD
330
1F
100
AcDbEntity
  8
dim
100
AcDbLine
 10
212.640004988
 20
159.22
 30
0.0
 11
211.640004988
 21
159.22
 31
0.0
  0
LINE
  5
3DE
330
1F
100
AcDbEntity
  8
dim
100
AcDbLine
 10
210.640004988
 20
158.22
 30
0.0
 11
210.640004988
 21
156.32
 31
0.0
  0
ARC
  5
3DF
330
1F
100
AcDbEntity
  8
dim
100
AcDbCircle
 10
211.640004988
 20
158.22
 30
0.0
 40
1.0
100
AcDbArc
 50
90.0
 51
180.0
  0
LINE
  5
3E0
330
1F
100
AcDbEntity
  8
dim
100
AcDbLine
 10
210.640004988
 20
154.42
 30
0.0
 11
210.640004988
 21
156.32
 31
0.0
  0
ARC
  5
3E1
330
1F
100
AcDbEntity
  8
dim
100
AcDbCircle
 10
211.640004988
 20
154.42
 30
0.0
 40
1.0
100
AcDbArc
 50
180.0
 51
270.0
  0
LINE
  5
3E2
330
1F
100
AcDbEntity
  8
dim
100
AcDbLine
 10
214.540004988
 20
159.82
 30
0.0
 11
215.140004988
 21
159.82
 31
0.0
  0
LINE
  5
3E3
330
1F
100
AcDbEntity
  8
dim
100
AcDbLine
 10
215.140004988
 20
159.82
 30
0.0
 11
214.540004988
 21
157.67
 31
0.0
  0
LINE
  5
3E4
330
1F
100
AcDbEntity
  8
dim
100
AcDbLine
 10
214.540004988
 20
158.92
 30
0.0
 11
215.140004988
 21
159.82
 31
0.0
  0
LINE
  5
3E5
330
1F
100
AcDbEntity
  8
dim
100
AcDbLine
 10
214.540004988
 20
152.82
 30
0.0
 11
215.140004988
 21
152.82
 31
0.0
  0
LINE
  5
3E6
330
1F
100
AcDbEntity
  8
dim
100
AcDbLine
 10
215.140004988
 20
152.82
 30
0.0
 11
214.540004988
 21
154.97
 31
0.0
  0
LINE
  5
3E7
330
1F
100
AcDbEntity
  8
dim
100
AcDbLine
 10
214.540004988
 20
153.72
 30
0.0
 11
215.140004988
 21
152.82
 31
0.0
  0
LINE
  5
3E8
330
1F
100
AcDbEntity
  8
dim
100
AcDbLine
 10
213.540004988
 20
159.42
 30
0.0
 11
213.540004988
 21
156.32
 31
0.0
  0
LWPOLYLINE
  5
3E9
330
1F
100
AcDbEntity
  8
dim
100
AcDbPolyline
 90
        3
 70
     0
 43
0.0
 10
214.540004988
 20
159.82
 10
214.040004988
 20
159.82
 10
213.540004988
 20
159.42
  0
LINE
  5
3EA
330
1F
100
AcDbEntity
  8
dim
100
AcDbLine
 10
214.540004988
 20
152.82
 30
0.0
 11
214.040004988
 21
152.82
 31
0.0
  0
LINE
  5
3EB
330
1F
100
AcDbEntity
  8
dim
100
AcDbLine
 10
213.540004988
 20
153.22
 30
0.0
 11
213.540004988
 21
156.32
 31
0.0
  0
LINE
  5
3EC
330
1F
100
AcDbEntity
  8
dim
100
AcDbLine
 10
214.040004988
 20
152.82
 30
0.0
 11
213.540004988
 21
153.22
 31
0.0
  0
LINE
  5
3ED
330
1F
100
AcDbEntity
  8
dim
100
AcDbLine
 10
214.540004988
 20
156.82
 30
0.0
 11
215.040004988
 21
156.82
 31
0.0
  0
LINE
  5
3EE
330
1F
100
AcDbEntity
  8
dim
100
AcDbLine
 10
215.040004988
 20
156.82
 30
0.0
 11
215.040004988
 21
155.82
 31
0.0
  0
LINE
  5
3EF
330
1F
100
AcDbEntity
  8
dim
100
AcDbLine
 10
215.040004988
 20
155.82
 30
0.0
 11
214.540004988
 21
155.82
 31
0.0
  0
LINE
  5
3F0
330
1F
100
AcDbEntity
  8
dim
100
AcDbLine
 10
214.540004988
 20
156.82
 30
0.0
 11
214.540004988
 21
158.92
 31
0.0
  0
LINE
  5
3F1
330
1F
100
AcDbEntity
  8
dim
100
AcDbLine
 10
214.540004988
 20
153.72
 30
0.0
 11
214.540004988
 21
155.82
 31
0.0
  0
LINE
  5
3F2
330
1F
100
AcDbEntity
  8
dim
100
AcDbLine
 10
225.14
 20
148.17
 30
0.0
 11
225.14
 21
150.97
 31
0.0
  0
LINE
  5
3F3
330
1F
100
AcDbEntity
  8
dim
100
AcDbLine
 10
225.14
 20
155.47
 30
0.0
 11
225.14
 21
150.97
 31
0.0
  0
LINE
  5
3F4
330
1F
100
AcDbEntity
  8
dim
100
AcDbLine
 10
224.140004988
 20
148.32
 30
0.0
 11
224.140004988
 21
155.32
 31
0.0
  0
LINE
  5
3F5
330
1F
100
AcDbEntity
  8
dim
100
AcDbLine
 10
224.140004988
 20
148.32
 30
0.0
 11
224.140004988
 21
155.32
 31
0.0
  0
LINE
  5
3F6
330
1F
100
AcDbEntity
  8
dim
100
AcDbLine
 10
221.640004988
 20
148.92
 30
0.0
 11
220.640004988
 21
148.92
 31
0.0
  0
LINE
  5
3F7
330
1F
100
AcDbEntity
  8
dim
100
AcDbLine
 10
221.640004988
 20
151.82
 30
0.0
 11
222.540004988
 21
151.22
 31
0.0
  0
LINE
  5
3F8
330
1F
100
AcDbEntity
  8
dim
100
AcDbLine
 10
221.640004988
 20
152.42
 30
0.0
 11
222.540004988
 21
151.82
 31
0.0
  0
LINE
  5
3F9
330
1F
100
AcDbEntity
  8
dim
100
AcDbLine
 10
221.640004988
 20
148.92
 30
0.0
 11
222.540004988
 21
148.92
 31
0.0
  0
LINE
  5
3FA
330
1F
100
AcDbEntity
  8
dim
100
AcDbLine
 10
221.640004988
 20
154.72
 30
0.0
 11
222.540004988
 21
154.72
 31
0.0
  0
LINE
  5
3FB
330
1F
100
AcDbEntity
  8
dim
100
AcDbLine
 10
221.640004988
 20
148.92
 30
0.0
 11
221.640004988
 21
154.72
 31
0.0
  0
LINE
  5
3FC
330
1F
100
AcDbEntity
  8
dim
100
AcDbLine
 10
219.640004988
 20
149.92
 30
0.0
 11
219.640004988
 21
151.82
 31
0.0
  0
ARC
  5
3FD
330
1F
100
AcDbEntity
  8
dim
100
AcDbCircle
 10
220.640004988
 20
149.92
 30
0.0
 40
1.0
100
AcDbArc
 50
180.0
 51
270.0
  0
LINE
  5
3FE
330
1F
100
AcDbEntity
  8
dim
100
AcDbLine
 10
219.640004988
 20
153.72
 30
0.0
 11
219.640004988
 21
151.82
 31
0.0
  0
ARC
  5
3FF
330
1F
100
AcDbEntity
  8
dim
100
AcDbCircle
 10
220.640004988
 20
153.72
 30
0.0
 40
1.0
100
AcDbArc
 50
90.0
 51
180.0
  0
LINE
  5
400
330
1F
100
AcDbEntity
  8
dim
100
AcDbLine
 10
221.640004988
 20
154.72
 30
0.0
 11
220.640004988
 21
154.72
 31
0.0
  0
LINE
  5
401
330
1F
100
AcDbEntity
  8
dim
100
AcDbLine
 10
219.640004988
 20
153.72
 30
0.0
 11
219.640004988
 21
151.82
 31
0.0
  0
ARC
  5
402
330
1F
100
AcDbEntity
  8
dim
100
AcDbCircle
 10
220.640004988
 20
153.72
 30
0.0
 40
1.0
100
AcDbArc
 50
90.0
 51
180.0
  0
LINE
  5
403
330
1F
100
AcDbEntity
  8
dim
100
AcDbLine
 10
219.640004988
 20
149.92
 30
0.0
 11
219.640004988
 21
151.82
 31
0.0
  0
ARC
  5
404
330
1F
100
AcDbEntity
  8
dim
100
AcDbCircle
 10
220.640004988
 20
149.92
 30
0.0
 40
1.0
100
AcDbArc
 50
180.0
 51
270.0
  0
LINE
  5
405
330
1F
100
AcDbEntity
  8
dim
100
AcDbLine
 10
223.540004988
 20
155.32
 30
0.0
 11
224.140004988
 21
155.32
 31
0.0
  0
LINE
  5
406
330
1F
100
AcDbEntity
  8
dim
100
AcDbLine
 10
224.140004988
 20
155.32
 30
0.0
 11
223.540004988
 21
153.17
 31
0.0
  0
LINE
  5
407
330
1F
100
AcDbEntity
  8
dim
100
AcDbLine
 10
223.540004988
 20
154.42
 30
0.0
 11
224.140004988
 21
155.32
 31
0.0
  0
LINE
  5
408
330
1F
100
AcDbEntity
  8
dim
100
AcDbLine
 10
223.540004988
 20
148.32
 30
0.0
 11
224.140004988
 21
148.32
 31
0.0
  0
LINE
  5
409
330
1F
100
AcDbEntity
  8
dim
100
AcDbLine
 10
224.140004988
 20
148.32
 30
0.0
 11
223.540004988
 21
150.47
 31
0.0
  0
LINE
  5
40A
330
1F
100
AcDbEntity
  8
dim
100
AcDbLine
 10
223.540004988
 20
149.22
 30
0.0
 11
224.140004988
 21
148.32
 31
0.0
  0
LINE
  5
40B
330
1F
100
AcDbEntity
  8
dim
100
AcDbLine
 10
222.540004988
 20
154.92
 30
0.0
 11
222.540004988
 21
151.82
 31
0.0
  0
LWPOLYLINE
  5
40C
330
1F
100
AcDbEntity
  8
dim
100
AcDbPolyline
 90
        3
 70
     0
 43
0.0
 10
223.540004988
 20
155.32
 10
223.040004988
 20
155.32
 10
222.540004988
 20
154.92
  0
LINE
  5
40D
330
1F
100
AcDbEntity
  8
dim
100
AcDbLine
 10
223.540004988
 20
148.32
 30
0.0
 11
223.040004988
 21
148.32
 31
0.0
  0
LINE
  5
40E
330
1F
100
AcDbEntity
  8
dim
100
AcDbLine
 10
222.540004988
 20
148.72
 30
0.0
 11
222.540004988
 21
151.82
 31
0.0
  0
LINE
  5
40F
330
1F
100
AcDbEntity
  8
dim
100
AcDbLine
 10
223.040004988
 20
148.32
 30
0.0
 11
222.540004988
 21
148.72
 31
0.0
  0
LINE
  5
410
330
1F
100
AcDbEntity
  8
dim
100
AcDbLine
 10
223.540004988
 20
152.32
 30
0.0
 11
224.040004988
 21
152.32
 31
0.0
  0
LINE
  5
411
330
1F
100
AcDbEntity
  8
dim
100
AcDbLine
 10
224.040004988
 20
152.32
 30
0.0
 11
224.040004988
 21
151.32
 31
0.0
  0
LINE
  5
412
330
1F
100
AcDbEntity
  8
dim
100
AcDbLine
 10
224.040004988
 20
151.32
 30
0.0
 11
223.540004988
 21
151.32
 31
0.0
  0
LINE
  5
413
330
1F
100
AcDbEntity
  8
dim
100
AcDbLine
 10
223.540004988
 20
152.32
 30
0.0
 11
223.540004988
 21
154.42
 31
0.0
  0
LINE
  5
414
330
1F
100
AcDbEntity
  8
dim
100
AcDbLine
 10
223.540004988
 20
149.22
 30
0.0
 11
223.540004988
 21
151.32
 31
0.0
  0
ARC
  5
415
330
1F
100
AcDbEntity
  8
dim
100
AcDbCircle
 10
204.14
 20
147.07
 30
0.0
 40
1.0
100
AcDbArc
 50
180.0
 51
270.0
  0
ARC
  5
416
330
1F
100
AcDbEntity
  8
dim
100
AcDbCircle
 10
204.14
 20
170.07
 30
0.0
 40
1.0
100
AcDbArc
 50
90.0
 51
180.0
  0
LINE
  5
417
330
1F
100
AcDbEntity
  8
dim
100
AcDbLine
 10
205.14
 20
149.07
 30
0.0
 11
205.14
 21
150.57
 31
0.0
  0
LINE
  5
418
330
1F
100
AcDbEntity
  8
dim
100
AcDbLine
 10
205.14
 20
151.57
 30
0.0
 11
205.14
 21
153.07
 31
0.0
  0
LINE
  5
419
330
1F
100
AcDbEntity
  8
dim
100
AcDbLine
 10
205.14
 20
154.07
 30
0.0
 11
205.14
 21
155.57
 31
0.0
  0
LINE
  5
41A
330
1F
100
AcDbEntity
  8
dim
100
AcDbLine
 10
205.14
 20
156.57
 30
0.0
 11
205.14
 21
158.07
 31
0.0
  0
LINE
  5
41B
330
1F
100
AcDbEntity
  8
dim
100
AcDbLine
 10
205.14
 20
168.07
 30
0.0
 11
205.14
 21
166.57
 31
0.0
  0
LINE
  5
41C
330
1F
100
AcDbEntity
  8
dim
100
AcDbLine
 10
205.14
 20
165.57
 30
0.0
 11
205.14
 21
164.07
 31
0.0
  0
LINE
  5
41D
330
1F
100
AcDbEntity
  8
dim
100
AcDbLine
 10
205.14
 20
160.57
 30
0.0
 11
205.14
 21
159.07
 31
0.0
  0
LINE
  5
41E
330
1F
100
AcDbEntity
  8
dim
100
AcDbLine
 10
205.14
 20
163.07
 30
0.0
 11
205.14
 21
161.62
 31
0.0
  0
LINE
  5
41F
330
1F
100
AcDbEntity
  8
dim
100
AcDbLine
 10
206.939
 20
169.07
 30
0.0
 11
206.939
 21
171.07
 31
0.0
  0
LINE
  5
420
330
1F
100
AcDbEntity
  8
dim
100
AcDbLine
 10
206.939
 20
148.07
 30
0.0
 11
206.939
 21
146.07
 31
0.0
  0
LINE
  5
421
330
1F
100
AcDbEntity
  8
dim
100
AcDbLine
 10
203.74
 20
168.059526961
 30
0.0
 11
203.74
 21
166.580473039
 31
0.0
  0
LINE
  5
422
330
1F
100
AcDbEntity
  8
dim
100
AcDbLine
 10
203.74
 20
165.559526961
 30
0.0
 11
203.74
 21
164.080473039
 31
0.0
  0
LINE
  5
423
330
1F
100
AcDbEntity
  8
dim
100
AcDbLine
 10
203.74
 20
163.059526961
 30
0.0
 11
203.74
 21
161.580473039
 31
0.0
  0
LINE
  5
424
330
1F
100
AcDbEntity
  8
dim
100
AcDbLine
 10
203.74
 20
160.559526961
 30
0.0
 11
203.74
 21
159.080473039
 31
0.0
  0
LINE
  5
425
330
1F
100
AcDbEntity
  8
dim
100
AcDbLine
 10
203.74
 20
158.059526961
 30
0.0
 11
203.74
 21
156.580473039
 31
0.0
  0
LINE
  5
426
330
1F
100
AcDbEntity
  8
dim
100
AcDbLine
 10
203.74
 20
155.559526961
 30
0.0
 11
203.74
 21
154.080473039
 31
0.0
  0
LINE
  5
427
330
1F
100
AcDbEntity
  8
dim
100
AcDbLine
 10
203.74
 20
153.059526961
 30
0.0
 11
203.74
 21
151.580473039
 31
0.0
  0
LINE
  5
428
330
1F
100
AcDbEntity
  8
dim
100
AcDbLine
 10
203.74
 20
150.559526961
 30
0.0
 11
203.74
 21
149.080473039
 31
0.0
  0
LINE
  5
429
330
1F
100
AcDbEntity
  8
dim
100
AcDbLine
 10
203.14
 20
149.07
 30
0.0
 11
203.14
 21
147.07
 31
0.0
  0
LINE
  5
42A
330
1F
100
AcDbEntity
  8
dim
100
AcDbLine
 10
203.14
 20
151.57
 30
0.0
 11
203.14
 21
150.57
 31
0.0
  0
LINE
  5
42B
330
1F
100
AcDbEntity
  8
dim
100
AcDbLine
 10
203.14
 20
154.07
 30
0.0
 11
203.14
 21
153.07
 31
0.0
  0
LINE
  5
42C
330
1F
100
AcDbEntity
  8
dim
100
AcDbLine
 10
203.14
 20
156.57
 30
0.0
 11
203.14
 21
155.57
 31
0.0
  0
LINE
  5
42D
330
1F
100
AcDbEntity
  8
dim
100
AcDbLine
 10
203.14
 20
159.07
 30
0.0
 11
203.14
 21
158.07
 31
0.0
  0
LINE
  5
42E
330
1F
100
AcDbEntity
  8
dim
100
AcDbLine
 10
203.14
 20
161.57
 30
0.0
 11
203.14
 21
160.57
 31
0.0
  0
LINE
  5
42F
330
1F
100
AcDbEntity
  8
dim
100
AcDbLine
 10
203.14
 20
164.07
 30
0.0
 11
203.14
 21
163.07
 31
0.0
  0
LINE
  5
430
330
1F
100
AcDbEntity
  8
dim
100
AcDbLine
 10
203.14
 20
166.57
 30
0.0
 11
203.14
 21
165.57
 31
0.0
  0
LINE
  5
431
330
1F
100
AcDbEntity
  8
dim
100
AcDbLine
 10
203.14
 20
170.07
 30
0.0
 11
203.14
 21
168.07
 31
0.0
  0
ARC
  5
432
330
1F
100
AcDbEntity
  8
dim
100
AcDbCircle
 10
207.189
 20
168.57
 30
0.0
 40
0.25
100
AcDbArc
 50
89.99984544999512
 51
179.9999999999951
  0
LINE
  5
433
330
1F
100
AcDbEntity
  8
dim
100
AcDbLine
 10
207.295835223
 20
168.82
 30
0.0
 11
207.189000674
 21
168.82
 31
0.0
  0
ARC
  5
434
330
1F
100
AcDbEntity
  8
dim
100
AcDbCircle
 10
207.189
 20
148.57
 30
0.0
 40
0.25
100
AcDbArc
 50
180.0
 51
270.0
  0
LINE
  5
435
330
1F
100
AcDbEntity
  8
dim
100
AcDbLine
 10
206.939
 20
148.57
 30
0.0
 11
206.939
 21
168.57
 31
0.0
  0
LINE
  5
436
330
1F
100
AcDbEntity
  8
dim
100
AcDbLine
 10
208.139
 20
168.82
 30
0.0
 11
208.139
 21
148.32
 31
0.0
  0
LINE
  5
437
330
1F
100
AcDbEntity
  8
dim
100
AcDbLine
 10
207.339
 20
148.07
 30
0.0
 11
207.339
 21
148.32
 31
0.0
  0
LINE
  5
438
330
1F
100
AcDbEntity
  8
dim
100
AcDbLine
 10
207.339
 20
169.07
 30
0.0
 11
207.339
 21
168.82
 31
0.0
  0
LINE
  5
439
330
1F
100
AcDbEntity
  8
dim
100
AcDbLine
 10
203.14
 20
150.57
 30
0.0
 11
206.939
 21
150.503688208
 31
0.0
  0
LINE
  5
43A
330
1F
100
AcDbEntity
  8
dim
100
AcDbLine
 10
203.14
 20
150.57
 30
0.0
 11
206.939
 21
150.503688208
 31
0.0
  0
LINE
  5
43B
330
1F
100
AcDbEntity
  8
dim
100
AcDbLine
 10
203.14
 20
149.07
 30
0.0
 11
206.939
 21
149.136311792
 31
0.0
  0
LINE
  5
43C
330
1F
100
AcDbEntity
  8
dim
100
AcDbLine
 10
203.14
 20
149.07
 30
0.0
 11
206.939
 21
149.136311792
 31
0.0
  0
LINE
  5
43D
330
1F
100
AcDbEntity
  8
dim
100
AcDbLine
 10
203.14
 20
151.57
 30
0.0
 11
206.939
 21
151.636311792
 31
0.0
  0
LINE
  5
43E
330
1F
100
AcDbEntity
  8
dim
100
AcDbLine
 10
203.14
 20
151.57
 30
0.0
 11
206.939
 21
151.636311792
 31
0.0
  0
LINE
  5
43F
330
1F
100
AcDbEntity
  8
dim
100
AcDbLine
 10
203.14
 20
153.07
 30
0.0
 11
206.939
 21
153.003688208
 31
0.0
  0
LINE
  5
440
330
1F
100
AcDbEntity
  8
dim
100
AcDbLine
 10
203.14
 20
153.07
 30
0.0
 11
206.939
 21
153.003688208
 31
0.0
  0
LINE
  5
441
330
1F
100
AcDbEntity
  8
dim
100
AcDbLine
 10
203.14
 20
154.07
 30
0.0
 11
206.939
 21
154.136311792
 31
0.0
  0
LINE
  5
442
330
1F
100
AcDbEntity
  8
dim
100
AcDbLine
 10
203.14
 20
154.07
 30
0.0
 11
206.939
 21
154.136311792
 31
0.0
  0
LINE
  5
443
330
1F
100
AcDbEntity
  8
dim
100
AcDbLine
 10
203.14
 20
155.57
 30
0.0
 11
206.939
 21
155.503688208
 31
0.0
  0
LINE
  5
444
330
1F
100
AcDbEntity
  8
dim
100
AcDbLine
 10
203.14
 20
155.57
 30
0.0
 11
206.939
 21
155.503688208
 31
0.0
  0
LINE
  5
445
330
1F
100
AcDbEntity
  8
dim
100
AcDbLine
 10
203.14
 20
156.57
 30
0.0
 11
206.939
 21
156.636311792
 31
0.0
  0
LINE
  5
446
330
1F
100
AcDbEntity
  8
dim
100
AcDbLine
 10
203.14
 20
156.57
 30
0.0
 11
206.939
 21
156.636311792
 31
0.0
  0
LINE
  5
447
330
1F
100
AcDbEntity
  8
dim
100
AcDbLine
 10
203.14
 20
158.07
 30
0.0
 11
206.939
 21
158.003688208
 31
0.0
  0
LINE
  5
448
330
1F
100
AcDbEntity
  8
dim
100
AcDbLine
 10
203.14
 20
158.07
 30
0.0
 11
206.939
 21
158.003688208
 31
0.0
  0
LINE
  5
449
330
1F
100
AcDbEntity
  8
dim
100
AcDbLine
 10
203.14
 20
159.07
 30
0.0
 11
206.939
 21
159.136311792
 31
0.0
  0
LINE
  5
44A
330
1F
100
AcDbEntity
  8
dim
100
AcDbLine
 10
203.14
 20
159.07
 30
0.0
 11
206.939
 21
159.136311792
 31
0.0
  0
LINE
  5
44B
330
1F
100
AcDbEntity
  8
dim
100
AcDbLine
 10
203.14
 20
160.57
 30
0.0
 11
206.939
 21
160.503688208
 31
0.0
  0
LINE
  5
44C
330
1F
100
AcDbEntity
  8
dim
100
AcDbLine
 10
203.14
 20
160.57
 30
0.0
 11
206.939
 21
160.503688208
 31
0.0
  0
LINE
  5
44D
330
1F
100
AcDbEntity
  8
dim
100
AcDbLine
 10
203.14
 20
161.57
 30
0.0
 11
206.939
 21
161.636311792
 31
0.0
  0
LINE
  5
44E
330
1F
100
AcDbEntity
  8
dim
100
AcDbLine
 10
203.14
 20
161.57
 30
0.0
 11
206.939
 21
161.636311792
 31
0.0
  0
LINE
  5
44F
330
1F
100
AcDbEntity
  8
dim
100
AcDbLine
 10
203.14
 20
163.07
 30
0.0
 11
206.939
 21
163.003688208
 31
0.0
  0
LINE
  5
450
330
1F
100
AcDbEntity
  8
dim
100
AcDbLine
 10
203.14
 20
163.07
 30
0.0
 11
206.939
 21
163.003688208
 31
0.0
  0
LINE
  5
451
330
1F
100
AcDbEntity
  8
dim
100
AcDbLine
 10
203.14
 20
164.07
 30
0.0
 11
206.939
 21
164.136311792
 31
0.0
  0
LINE
  5
452
330
1F
100
AcDbEntity
  8
dim
100
AcDbLine
 10
203.14
 20
164.07
 30
0.0
 11
206.939
 21
164.136311792
 31
0.0
  0
LINE
  5
453
330
1F
100
AcDbEntity
  8
dim
100
AcDbLine
 10
203.14
 20
165.57
 30
0.0
 11
206.939
 21
165.503688208
 31
0.0
  0
LINE
  5
454
330
1F
100
AcDbEntity
  8
dim
100
AcDbLine
 10
203.14
 20
165.57
 30
0.0
 11
206.939
 21
165.503688208
 31
0.0
  0
LINE
  5
455
330
1F
100
AcDbEntity
  8
dim
100
AcDbLine
 10
203.14
 20
166.57
 30
0.0
 11
206.939
 21
166.636311792
 31
0.0
  0
LINE
  5
456
330
1F
100
AcDbEntity
  8
dim
100
AcDbLine
 10
203.14
 20
166.57
 30
0.0
 11
206.939
 21
166.636311792
 31
0.0
  0
LINE
  5
457
330
1F
100
AcDbEntity
  8
dim
100
AcDbLine
 10
203.14
 20
168.07
 30
0.0
 11
206.939
 21
168.003688208
 31
0.0
  0
LINE
  5
458
330
1F
100
AcDbEntity
  8
dim
100
AcDbLine
 10
203.14
 20
168.07
 30
0.0
 11
206.939
 21
168.003688208
 31
0.0
  0
LINE
  5
459
330
1F
100
AcDbEntity
  8
dim
100
AcDbLine
 10
209.789
 20
167.82
 30
0.0
 11
208.139
 21
167.82
 31
0.0
  0
LINE
  5
45A
330
1F
100
AcDbEntity
  8
dim
100
AcDbLine
 10
209.789
 20
168.57
 30
0.0
 11
209.789
 21
167.82
 31
0.0
  0
ARC
  5
45B
330
1F
100
AcDbEntity
  8
dim
100
AcDbCircle
 10
209.539
 20
168.57
 30
0.0
 40
0.25
100
AcDbArc
 50
0.0
 51
90.0
  0
ARC
  5
45C
330
1F
100
AcDbEntity
  8
dim
100
AcDbCircle
 10
208.583221577
 20
168.52
 30
0.0
 40
0.7500000000000004
100
AcDbArc
 50
23.57817847799902
 51
47.16657193499903
  0
ARC
  5
45D
330
1F
100
AcDbEntity
  8
dim
100
AcDbCircle
 10
208.583221577
 20
168.52
 30
0.0
 40
0.7500000000000063
100
AcDbArc
 50
132.8334280649998
 51
156.4218215219998
  0
LINE
  5
45E
330
1F
100
AcDbEntity
  8
dim
100
AcDbLine
 10
209.539
 20
168.82
 30
0.0
 11
207.295835223
 21
168.82
 31
0.0
  0
LINE
  5
45F
330
1F
100
AcDbEntity
  8
dim
100
AcDbLine
 10
209.789
 20
149.32
 30
0.0
 11
208.139
 21
149.32
 31
0.0
  0
LINE
  5
460
330
1F
100
AcDbEntity
  8
dim
100
AcDbLine
 10
209.789
 20
148.57
 30
0.0
 11
209.789
 21
149.32
 31
0.0
  0
ARC
  5
461
330
1F
100
AcDbEntity
  8
dim
100
AcDbCircle
 10
209.539
 20
148.57
 30
0.0
 40
0.25
100
AcDbArc
 50
270.0
 51
0.0
  0
ARC
  5
462
330
1F
100
AcDbEntity
  8
dim
100
AcDbCircle
 10
208.583221577
 20
148.62
 30
0.0
 40
0.7500000000000004
100
AcDbArc
 50
203.578178477999
 51
227.166571933999
  0
ARC
  5
463
330
1F
100
AcDbEntity
  8
dim
100
AcDbCircle
 10
208.583221577
 20
148.62
 30
0.0
 40
0.749999999999993
100
AcDbArc
 50
312.8334280660015
 51
336.4218215220015
  0
LINE
  5
464
330
1F
100
AcDbEntity
  8
dim
100
AcDbLine
 10
209.64
 20
148.341310254
 30
0.0
 11
209.64
 21
148.07
 31
0.0
  0
LINE
  5
465
330
1F
100
AcDbEntity
  8
dim
100
AcDbLine
 10
209.539
 20
148.32
 30
0.0
 11
207.189
 21
148.32
 31
0.0
  0
LINE
  5
466
330
1F
100
AcDbEntity
  8
dim
100
AcDbLine
 10
0.0
 20
146.07
 30
0.0
 11
0.0
 21
171.07
 31
0.0
  0
LINE
  5
467
330
1F
100
AcDbEntity
  8
dim
100
AcDbLine
 10
26.049997303
 20
148.07
 30
0.0
 11
18.8
 21
148.07
 31
0.0
  0
ARC
  5
468
330
1F
100
AcDbEntity
  8
dim
100
AcDbCircle
 10
39.8
 20
147.07
 30
0.0
 40
1.0
100
AcDbArc
 50
270.0
 51
0.0
  0
ARC
  5
469
330
1F
100
AcDbEntity
  8
dim
100
AcDbCircle
 10
39.8
 20
170.07
 30
0.0
 40
1.0
100
AcDbArc
 50
0.0
 51
90.0
  0
LINE
  5
46A
330
1F
100
AcDbEntity
  8
dim
100
AcDbLine
 10
39.8
 20
146.07
 30
0.0
 11
0.0
 21
146.07
 31
0.0
  0
LINE
  5
46B
330
1F
100
AcDbEntity
  8
dim
100
AcDbLine
 10
27.049997303
 20
148.07
 30
0.0
 11
40.8
 21
148.07
 31
0.0
  0
LINE
  5
46C
330
1F
100
AcDbEntity
  8
dim
100
AcDbLine
 10
40.8
 20
148.07
 30
0.0
 11
25.962749006
 21
148.07
 31
0.0
  0
LINE
  5
46D
330
1F
100
AcDbEntity
  8
dim
100
AcDbLine
 10
0.0
 20
171.07
 30
0.0
 11
39.8
 21
171.07
 31
0.0
  0
LINE
  5
46E
330
1F
100
AcDbEntity
  8
dim
100
AcDbLine
 10
38.8
 20
149.07
 30
0.0
 11
38.8
 21
150.57
 31
0.0
  0
LINE
  5
46F
330
1F
100
AcDbEntity
  8
dim
100
AcDbLine
 10
38.8
 20
151.57
 30
0.0
 11
38.8
 21
153.07
 31
0.0
  0
LINE
  5
470
330
1F
100
AcDbEntity
  8
dim
100
AcDbLine
 10
38.8
 20
154.07
 30
0.0
 11
38.8
 21
155.57
 31
0.0
  0
LINE
  5
471
330
1F
100
AcDbEntity
  8
dim
100
AcDbLine
 10
38.8
 20
156.57
 30
0.0
 11
38.8
 21
158.07
 31
0.0
  0
LINE
  5
472
330
1F
100
AcDbEntity
  8
dim
100
AcDbLine
 10
38.8
 20
168.07
 30
0.0
 11
38.8
 21
166.57
 31
0.0
  0
LINE
  5
473
330
1F
100
AcDbEntity
  8
dim
100
AcDbLine
 10
38.8
 20
165.57
 30
0.0
 11
38.8
 21
164.07
 31
0.0
  0
LINE
  5
474
330
1F
100
AcDbEntity
  8
dim
100
AcDbLine
 10
38.8
 20
160.57
 30
0.0
 11
38.8
 21
159.07
 31
0.0
  0
LINE
  5
475
330
1F
100
AcDbEntity
  8
dim
100
AcDbLine
 10
26.049997303
 20
148.07
 30
0.0
 11
18.8
 21
148.07
 31
0.0
  0
LINE
  5
476
330
1F
100
AcDbEntity
  8
dim
100
AcDbLine
 10
37.55
 20
148.07
 30
0.0
 11
26.049997303
 21
148.07
 31
0.0
  0
LINE
  5
477
330
1F
100
AcDbEntity
  8
dim
100
AcDbLine
 10
27.049997303
 20
148.07
 30
0.0
 11
40.8
 21
148.07
 31
0.0
  0
LINE
  5
478
330
1F
100
AcDbEntity
  8
dim
100
AcDbLine
 10
18.8
 20
148.17
 30
0.0
 11
18.8
 21
153.62
 31
0.0
  0
LINE
  5
479
330
1F
100
AcDbEntity
  8
dim
100
AcDbLine
 10
18.8
 20
157.17
 30
0.0
 11
18.8
 21
159.97
 31
0.0
  0
LINE
  5
47A
330
1F
100
AcDbEntity
  8
dim
100
AcDbLine
 10
18.8
 20
153.62
 30
0.0
 11
18.8
 21
155.47
 31
0.0
  0
LINE
  5
47B
330
1F
100
AcDbEntity
  8
dim
100
AcDbLine
 10
27.8
 20
152.67
 30
0.0
 11
34.3
 21
152.67
 31
0.0
  0
LINE
  5
47C
330
1F
100
AcDbEntity
  8
dim
100
AcDbLine
 10
18.8
 20
164.47
 30
0.0
 11
18.8
 21
159.97
 31
0.0
  0
LINE
  5
47D
330
1F
100
AcDbEntity
  8
dim
100
AcDbLine
 10
25.3
 20
171.07
 30
0.0
 11
25.3
 21
169.07
 31
0.0
  0
LINE
  5
47E
330
1F
100
AcDbEntity
  8
dim
100
AcDbLine
 10
25.3
 20
169.07
 30
0.0
 11
40.8
 21
169.07
 31
0.0
  0
LINE
  5
47F
330
1F
100
AcDbEntity
  8
dim
100
AcDbLine
 10
18.8
 20
164.47
 30
0.0
 11
25.3
 21
164.47
 31
0.0
  0
LINE
  5
480
330
1F
100
AcDbEntity
  8
dim
100
AcDbLine
 10
25.3
 20
164.47
 30
0.0
 11
25.3
 21
169.07
 31
0.0
  0
LINE
  5
481
330
1F
100
AcDbEntity
  8
dim
100
AcDbLine
 10
25.3
 20
148.07
 30
0.0
 11
25.3
 21
146.07
 31
0.0
  0
LINE
  5
482
330
1F
100
AcDbEntity
  8
dim
100
AcDbLine
 10
18.8
 20
157.17
 30
0.0
 11
25.3
 21
157.17
 31
0.0
  0
LINE
  5
483
330
1F
100
AcDbEntity
  8
dim
100
AcDbLine
 10
18.8
 20
155.47
 30
0.0
 11
25.3
 21
155.47
 31
0.0
  0
LINE
  5
484
330
1F
100
AcDbEntity
  8
dim
100
AcDbLine
 10
25.3
 20
155.47
 30
0.0
 11
25.3
 21
157.17
 31
0.0
  0
LINE
  5
485
330
1F
100
AcDbEntity
  8
dim
100
AcDbLine
 10
27.8
 20
169.07
 30
0.0
 11
27.8
 21
161.67
 31
0.0
  0
LINE
  5
486
330
1F
100
AcDbEntity
  8
dim
100
AcDbLine
 10
27.8
 20
159.97
 30
0.0
 11
27.8
 21
152.67
 31
0.0
  0
LINE
  5
487
330
1F
100
AcDbEntity
  8
dim
100
AcDbLine
 10
19.799995012
 20
157.32
 30
0.0
 11
19.799995012
 21
164.32
 31
0.0
  0
LINE
  5
488
330
1F
100
AcDbEntity
  8
dim
100
AcDbLine
 10
19.799995012
 20
157.32
 30
0.0
 11
19.799995012
 21
164.32
 31
0.0
  0
LINE
  5
489
330
1F
100
AcDbEntity
  8
dim
100
AcDbLine
 10
22.299995012
 20
157.92
 30
0.0
 11
23.299995012
 21
157.92
 31
0.0
  0
LINE
  5
48A
330
1F
100
AcDbEntity
  8
dim
100
AcDbLine
 10
22.299995012
 20
160.82
 30
0.0
 11
21.39999501200001
 21
160.22
 31
0.0
  0
LINE
  5
48B
330
1F
100
AcDbEntity
  8
dim
100
AcDbLine
 10
22.299995012
 20
161.42
 30
0.0
 11
21.39999501200001
 21
160.82
 31
0.0
  0
LINE
  5
48C
330
1F
100
AcDbEntity
  8
dim
100
AcDbLine
 10
22.299995012
 20
157.92
 30
0.0
 11
21.39999501200001
 21
157.92
 31
0.0
  0
LINE
  5
48D
330
1F
100
AcDbEntity
  8
dim
100
AcDbLine
 10
22.299995012
 20
163.72
 30
0.0
 11
21.39999501200001
 21
163.72
 31
0.0
  0
LINE
  5
48E
330
1F
100
AcDbEntity
  8
dim
100
AcDbLine
 10
22.299995012
 20
157.92
 30
0.0
 11
22.299995012
 21
163.72
 31
0.0
  0
LINE
  5
48F
330
1F
100
AcDbEntity
  8
dim
100
AcDbLine
 10
24.299995012
 20
158.92
 30
0.0
 11
24.299995012
 21
160.82
 31
0.0
  0
ARC
  5
490
330
1F
100
AcDbEntity
  8
dim
100
AcDbCircle
 10
23.299995012
 20
158.92
 30
0.0
 40
1.0
100
AcDbArc
 50
270.0
 51
0.0
  0
LINE
  5
491
330
1F
100
AcDbEntity
  8
dim
100
AcDbLine
 10
24.299995012
 20
162.72
 30
0.0
 11
24.299995012
 21
160.82
 31
0.0
  0
ARC
  5
492
330
1F
100
AcDbEntity
  8
dim
100
AcDbCircle
 10
23.299995012
 20
162.72
 30
0.0
 40
1.0
100
AcDbArc
 50
0.0
 51
90.0
  0
LINE
  5
493
330
1F
100
AcDbEntity
  8
dim
100
AcDbLine
 10
22.299995012
 20
163.72
 30
0.0
 11
23.299995012
 21
163.72
 31
0.0
  0
LINE
  5
494
330
1F
100
AcDbEntity
  8
dim
100
AcDbLine
 10
24.299995012
 20
162.72
 30
0.0
 11
24.299995012
 21
160.82
 31
0.0
  0
ARC
  5
495
330
1F
100
AcDbEntity
  8
dim
100
AcDbCircle
 10
23.299995012
 20
162.72
 30
0.0
 40
1.0
100
AcDbArc
 50
0.0
 51
90.0
  0
LINE
  5
496
330
1F
100
AcDbEntity
  8
dim
100
AcDbLine
 10
24.299995012
 20
158.92
 30
0.0
 11
24.299995012
 21
160.82
 31
0.0
  0
ARC
  5
497
330
1F
100
AcDbEntity
  8
dim
100
AcDbCircle
 10
23.299995012
 20
158.92
 30
0.0
 40
1.0
100
AcDbArc
 50
270.0
 51
0.0
  0
LINE
  5
498
330
1F
100
AcDbEntity
  8
dim
100
AcDbLine
 10
20.39999501200001
 20
164.32
 30
0.0
 11
19.799995012
 21
164.32
 31
0.0
  0
LINE
  5
499
330
1F
100
AcDbEntity
  8
dim
100
AcDbLine
 10
19.799995012
 20
164.32
 30
0.0
 11
20.39999501200001
 21
162.17
 31
0.0
  0
LINE
  5
49A
330
1F
100
AcDbEntity
  8
dim
100
AcDbLine
 10
20.39999501200001
 20
163.42
 30
0.0
 11
19.799995012
 21
164.32
 31
0.0
  0
LINE
  5
49B
330
1F
100
AcDbEntity
  8
dim
100
AcDbLine
 10
20.39999501200001
 20
157.32
 30
0.0
 11
19.799995012
 21
157.32
 31
0.0
  0
LINE
  5
49C
330
1F
100
AcDbEntity
  8
dim
100
AcDbLine
 10
19.799995012
 20
157.32
 30
0.0
 11
20.39999501200001
 21
159.47
 31
0.0
  0
LINE
  5
49D
330
1F
100
AcDbEntity
  8
dim
100
AcDbLine
 10
20.39999501200001
 20
158.22
 30
0.0
 11
19.799995012
 21
157.32
 31
0.0
  0
LINE
  5
49E
330
1F
100
AcDbEntity
  8
dim
100
AcDbLine
 10
21.39999501200001
 20
163.92
 30
0.0
 11
21.39999501200001
 21
160.82
 31
0.0
  0
LWPOLYLINE
  5
49F
330
1F
100
AcDbEntity
  8
dim
100
AcDbPolyline
 90
        3
 70
     0
 43
0.0
 10
20.39999501200001
 20
164.32
 10
20.89999501200001
 20
164.32
 10
21.39999501200001
 20
163.92
  0
LINE
  5
4A0
330
1F
100
AcDbEntity
  8
dim
100
AcDbLine
 10
20.39999501200001
 20
157.32
 30
0.0
 11
20.89999501200001
 21
157.32
 31
0.0
  0
LINE
  5
4A1
330
1F
100
AcDbEntity
  8
dim
100
AcDbLine
 10
21.39999501200001
 20
157.72
 30
0.0
 11
21.39999501200001
 21
160.82
 31
0.0
  0
LINE
  5
4A2
330
1F
100
AcDbEntity
  8
dim
100
AcDbLine
 10
20.89999501200001
 20
157.32
 30
0.0
 11
21.39999501200001
 21
157.72
 31
0.0
  0
LINE
  5
4A3
330
1F
100
AcDbEntity
  8
dim
100
AcDbLine
 10
20.39999501200001
 20
161.32
 30
0.0
 11
19.89999501200001
 21
161.32
 31
0.0
  0
LINE
  5
4A4
330
1F
100
AcDbEntity
  8
dim
100
AcDbLine
 10
19.89999501200001
 20
161.32
 30
0.0
 11
19.89999501200001
 21
160.32
 31
0.0
  0
LINE
  5
4A5
330
1F
100
AcDbEntity
  8
dim
100
AcDbLine
 10
19.89999501200001
 20
160.32
 30
0.0
 11
20.39999501200001
 21
160.32
 31
0.0
  0
LINE
  5
4A6
330
1F
100
AcDbEntity
  8
dim
100
AcDbLine
 10
20.39999501200001
 20
161.32
 30
0.0
 11
20.39999501200001
 21
163.42
 31
0.0
  0
LINE
  5
4A7
330
1F
100
AcDbEntity
  8
dim
100
AcDbLine
 10
20.39999501200001
 20
158.22
 30
0.0
 11
20.39999501200001
 21
160.32
 31
0.0
  0
LINE
  5
4A8
330
1F
100
AcDbEntity
  8
dim
100
AcDbLine
 10
27.8
 20
161.77
 30
0.0
 11
27.8
 21
164.57
 31
0.0
  0
LINE
  5
4A9
330
1F
100
AcDbEntity
  8
dim
100
AcDbLine
 10
27.8
 20
169.07
 30
0.0
 11
27.8
 21
164.57
 31
0.0
  0
LINE
  5
4AA
330
1F
100
AcDbEntity
  8
dim
100
AcDbLine
 10
28.799995012
 20
161.92
 30
0.0
 11
28.799995012
 21
168.92
 31
0.0
  0
LINE
  5
4AB
330
1F
100
AcDbEntity
  8
dim
100
AcDbLine
 10
28.799995012
 20
161.92
 30
0.0
 11
28.799995012
 21
168.92
 31
0.0
  0
LINE
  5
4AC
330
1F
100
AcDbEntity
  8
dim
100
AcDbLine
 10
31.299995012
 20
162.52
 30
0.0
 11
32.299995012
 21
162.52
 31
0.0
  0
LINE
  5
4AD
330
1F
100
AcDbEntity
  8
dim
100
AcDbLine
 10
31.299995012
 20
165.42
 30
0.0
 11
30.39999501200001
 21
164.82
 31
0.0
  0
LINE
  5
4AE
330
1F
100
AcDbEntity
  8
dim
100
AcDbLine
 10
31.299995012
 20
166.02
 30
0.0
 11
30.39999501200001
 21
165.42
 31
0.0
  0
LINE
  5
4AF
330
1F
100
AcDbEntity
  8
dim
100
AcDbLine
 10
31.299995012
 20
162.52
 30
0.0
 11
30.39999501200001
 21
162.52
 31
0.0
  0
LINE
  5
4B0
330
1F
100
AcDbEntity
  8
dim
100
AcDbLine
 10
31.299995012
 20
168.32
 30
0.0
 11
30.39999501200001
 21
168.32
 31
0.0
  0
LINE
  5
4B1
330
1F
100
AcDbEntity
  8
dim
100
AcDbLine
 10
31.299995012
 20
162.52
 30
0.0
 11
31.299995012
 21
168.32
 31
0.0
  0
LINE
  5
4B2
330
1F
100
AcDbEntity
  8
dim
100
AcDbLine
 10
33.299995012
 20
163.52
 30
0.0
 11
33.299995012
 21
165.42
 31
0.0
  0
ARC
  5
4B3
330
1F
100
AcDbEntity
  8
dim
100
AcDbCircle
 10
32.299995012
 20
163.52
 30
0.0
 40
1.0
100
AcDbArc
 50
270.0
 51
0.0
  0
LINE
  5
4B4
330
1F
100
AcDbEntity
  8
dim
100
AcDbLine
 10
33.299995012
 20
167.32
 30
0.0
 11
33.299995012
 21
165.42
 31
0.0
  0
ARC
  5
4B5
330
1F
100
AcDbEntity
  8
dim
100
AcDbCircle
 10
32.299995012
 20
167.32
 30
0.0
 40
1.0
100
AcDbArc
 50
0.0
 51
90.0
  0
LINE
  5
4B6
330
1F
100
AcDbEntity
  8
dim
100
AcDbLine
 10
31.299995012
 20
168.32
 30
0.0
 11
32.299995012
 21
168.32
 31
0.0
  0
LINE
  5
4B7
330
1F
100
AcDbEntity
  8
dim
100
AcDbLine
 10
33.299995012
 20
167.32
 30
0.0
 11
33.299995012
 21
165.42
 31
0.0
  0
ARC
  5
4B8
330
1F
100
AcDbEntity
  8
dim
100
AcDbCircle
 10
32.299995012
 20
167.32
 30
0.0
 40
1.0
100
AcDbArc
 50
0.0
 51
90.0
  0
LINE
  5
4B9
330
1F
100
AcDbEntity
  8
dim
100
AcDbLine
 10
33.299995012
 20
163.52
 30
0.0
 11
33.299995012
 21
165.42
 31
0.0
  0
ARC
  5
4BA
330
1F
100
AcDbEntity
  8
dim
100
AcDbCircle
 10
32.299995012
 20
163.52
 30
0.0
 40
1.0
100
AcDbArc
 50
270.0
 51
0.0
  0
LINE
  5
4BB
330
1F
100
AcDbEntity
  8
dim
100
AcDbLine
 10
29.39999501200001
 20
168.92
 30
0.0
 11
28.799995012
 21
168.92
 31
0.0
  0
LINE
  5
4BC
330
1F
100
AcDbEntity
  8
dim
100
AcDbLine
 10
28.799995012
 20
168.92
 30
0.0
 11
29.39999501200001
 21
166.77
 31
0.0
  0
LINE
  5
4BD
330
1F
100
AcDbEntity
  8
dim
100
AcDbLine
 10
29.39999501200001
 20
168.02
 30
0.0
 11
28.799995012
 21
168.92
 31
0.0
  0
LINE
  5
4BE
330
1F
100
AcDbEntity
  8
dim
100
AcDbLine
 10
29.39999501200001
 20
161.92
 30
0.0
 11
28.799995012
 21
161.92
 31
0.0
  0
LINE
  5
4BF
330
1F
100
AcDbEntity
  8
dim
100
AcDbLine
 10
28.799995012
 20
161.92
 30
0.0
 11
29.39999501200001
 21
164.07
 31
0.0
  0
LINE
  5
4C0
330
1F
100
AcDbEntity
  8
dim
100
AcDbLine
 10
29.39999501200001
 20
162.82
 30
0.0
 11
28.799995012
 21
161.92
 31
0.0
  0
LINE
  5
4C1
330
1F
100
AcDbEntity
  8
dim
100
AcDbLine
 10
30.39999501200001
 20
168.52
 30
0.0
 11
30.39999501200001
 21
165.42
 31
0.0
  0
LWPOLYLINE
  5
4C2
330
1F
100
AcDbEntity
  8
dim
100
AcDbPolyline
 90
        3
 70
     0
 43
0.0
 10
29.39999501200001
 20
168.92
 10
29.89999501200001
 20
168.92
 10
30.39999501200001
 20
168.52
  0
LINE
  5
4C3
330
1F
100
AcDbEntity
  8
dim
100
AcDbLine
 10
29.39999501200001
 20
161.92
 30
0.0
 11
29.89999501200001
 21
161.92
 31
0.0
  0
LINE
  5
4C4
330
1F
100
AcDbEntity
  8
dim
100
AcDbLine
 10
30.39999501200001
 20
162.32
 30
0.0
 11
30.39999501200001
 21
165.42
 31
0.0
  0
LINE
  5
4C5
330
1F
100
AcDbEntity
  8
dim
100
AcDbLine
 10
29.89999501200001
 20
161.92
 30
0.0
 11
30.39999501200001
 21
162.32
 31
0.0
  0
LINE
  5
4C6
330
1F
100
AcDbEntity
  8
dim
100
AcDbLine
 10
29.39999501200001
 20
165.92
 30
0.0
 11
28.89999501200001
 21
165.92
 31
0.0
  0
LINE
  5
4C7
330
1F
100
AcDbEntity
  8
dim
100
AcDbLine
 10
28.89999501200001
 20
165.92
 30
0.0
 11
28.89999501200001
 21
164.92
 31
0.0
  0
LINE
  5
4C8
330
1F
100
AcDbEntity
  8
dim
100
AcDbLine
 10
28.89999501200001
 20
164.92
 30
0.0
 11
29.39999501200001
 21
164.92
 31
0.0
  0
LINE
  5
4C9
330
1F
100
AcDbEntity
  8
dim
100
AcDbLine
 10
29.39999501200001
 20
165.92
 30
0.0
 11
29.39999501200001
 21
168.02
 31
0.0
  0
LINE
  5
4CA
330
1F
100
AcDbEntity
  8
dim
100
AcDbLine
 10
29.39999501200001
 20
162.82
 30
0.0
 11
29.39999501200001
 21
164.92
 31
0.0
  0
LINE
  5
4CB
330
1F
100
AcDbEntity
  8
dim
100
AcDbLine
 10
27.8
 20
159.97
 30
0.0
 11
27.8
 21
152.57
 31
0.0
  0
LINE
  5
4CC
330
1F
100
AcDbEntity
  8
dim
100
AcDbLine
 10
27.8
 20
152.67
 30
0.0
 11
27.8
 21
155.47
 31
0.0
  0
LINE
  5
4CD
330
1F
100
AcDbEntity
  8
dim
100
AcDbLine
 10
27.8
 20
159.97
 30
0.0
 11
27.8
 21
155.47
 31
0.0
  0
LINE
  5
4CE
330
1F
100
AcDbEntity
  8
dim
100
AcDbLine
 10
28.799995012
 20
152.82
 30
0.0
 11
28.799995012
 21
159.82
 31
0.0
  0
LINE
  5
4CF
330
1F
100
AcDbEntity
  8
dim
100
AcDbLine
 10
28.799995012
 20
152.82
 30
0.0
 11
28.799995012
 21
159.82
 31
0.0
  0
LINE
  5
4D0
330
1F
100
AcDbEntity
  8
dim
100
AcDbLine
 10
31.299995012
 20
153.42
 30
0.0
 11
32.299995012
 21
153.42
 31
0.0
  0
LINE
  5
4D1
330
1F
100
AcDbEntity
  8
dim
100
AcDbLine
 10
31.299995012
 20
156.32
 30
0.0
 11
30.39999501200001
 21
155.72
 31
0.0
  0
LINE
  5
4D2
330
1F
100
AcDbEntity
  8
dim
100
AcDbLine
 10
31.299995012
 20
156.92
 30
0.0
 11
30.39999501200001
 21
156.32
 31
0.0
  0
LINE
  5
4D3
330
1F
100
AcDbEntity
  8
dim
100
AcDbLine
 10
31.299995012
 20
153.42
 30
0.0
 11
30.39999501200001
 21
153.42
 31
0.0
  0
LINE
  5
4D4
330
1F
100
AcDbEntity
  8
dim
100
AcDbLine
 10
31.299995012
 20
159.22
 30
0.0
 11
30.39999501200001
 21
159.22
 31
0.0
  0
LINE
  5
4D5
330
1F
100
AcDbEntity
  8
dim
100
AcDbLine
 10
31.299995012
 20
153.42
 30
0.0
 11
31.299995012
 21
159.22
 31
0.0
  0
LINE
  5
4D6
330
1F
100
AcDbEntity
  8
dim
100
AcDbLine
 10
33.299995012
 20
154.42
 30
0.0
 11
33.299995012
 21
156.32
 31
0.0
  0
ARC
  5
4D7
330
1F
100
AcDbEntity
  8
dim
100
AcDbCircle
 10
32.299995012
 20
154.42
 30
0.0
 40
1.0
100
AcDbArc
 50
270.0
 51
0.0
  0
LINE
  5
4D8
330
1F
100
AcDbEntity
  8
dim
100
AcDbLine
 10
33.299995012
 20
158.22
 30
0.0
 11
33.299995012
 21
156.32
 31
0.0
  0
ARC
  5
4D9
330
1F
100
AcDbEntity
  8
dim
100
AcDbCircle
 10
32.299995012
 20
158.22
 30
0.0
 40
1.0
100
AcDbArc
 50
0.0
 51
90.0
  0
LINE
  5
4DA
330
1F
100
AcDbEntity
  8
dim
100
AcDbLine
 10
31.299995012
 20
159.22
 30
0.0
 11
32.299995012
 21
159.22
 31
0.0
  0
LINE
  5
4DB
330
1F
100
AcDbEntity
  8
dim
100
AcDbLine
 10
33.299995012
 20
158.22
 30
0.0
 11
33.299995012
 21
156.32
 31
0.0
  0
ARC
  5
4DC
330
1F
100
AcDbEntity
  8
dim
100
AcDbCircle
 10
32.299995012
 20
158.22
 30
0.0
 40
1.0
100
AcDbArc
 50
0.0
 51
90.0
  0
LINE
  5
4DD
330
1F
100
AcDbEntity
  8
dim
100
AcDbLine
 10
33.299995012
 20
154.42
 30
0.0
 11
33.299995012
 21
156.32
 31
0.0
  0
ARC
  5
4DE
330
1F
100
AcDbEntity
  8
dim
100
AcDbCircle
 10
32.299995012
 20
154.42
 30
0.0
 40
1.0
100
AcDbArc
 50
270.0
 51
0.0
  0
LINE
  5
4DF
330
1F
100
AcDbEntity
  8
dim
100
AcDbLine
 10
29.39999501200001
 20
159.82
 30
0.0
 11
28.799995012
 21
159.82
 31
0.0
  0
LINE
  5
4E0
330
1F
100
AcDbEntity
  8
dim
100
AcDbLine
 10
28.799995012
 20
159.82
 30
0.0
 11
29.39999501200001
 21
157.67
 31
0.0
  0
LINE
  5
4E1
330
1F
100
AcDbEntity
  8
dim
100
AcDbLine
 10
29.39999501200001
 20
158.92
 30
0.0
 11
28.799995012
 21
159.82
 31
0.0
  0
LINE
  5
4E2
330
1F
100
AcDbEntity
  8
dim
100
AcDbLine
 10
29.39999501200001
 20
152.82
 30
0.0
 11
28.799995012
 21
152.82
 31
0.0
  0
LINE
  5
4E3
330
1F
100
AcDbEntity
  8
dim
100
AcDbLine
 10
28.799995012
 20
152.82
 30
0.0
 11
29.39999501200001
 21
154.97
 31
0.0
  0
LINE
  5
4E4
330
1F
100
AcDbEntity
  8
dim
100
AcDbLine
 10
29.39999501200001
 20
153.72
 30
0.0
 11
28.799995012
 21
152.82
 31
0.0
  0
LINE
  5
4E5
330
1F
100
AcDbEntity
  8
dim
100
AcDbLine
 10
30.39999501200001
 20
159.42
 30
0.0
 11
30.39999501200001
 21
156.32
 31
0.0
  0
LWPOLYLINE
  5
4E6
330
1F
100
AcDbEntity
  8
dim
100
AcDbPolyline
 90
        3
 70
     0
 43
0.0
 10
29.39999501200001
 20
159.82
 10
29.89999501200001
 20
159.82
 10
30.39999501200001
 20
159.42
  0
LINE
  5
4E7
330
1F
100
AcDbEntity
  8
dim
100
AcDbLine
 10
29.39999501200001
 20
152.82
 30
0.0
 11
29.89999501200001
 21
152.82
 31
0.0
  0
LINE
  5
4E8
330
1F
100
AcDbEntity
  8
dim
100
AcDbLine
 10
30.39999501200001
 20
153.22
 30
0.0
 11
30.39999501200001
 21
156.32
 31
0.0
  0
LINE
  5
4E9
330
1F
100
AcDbEntity
  8
dim
100
AcDbLine
 10
29.89999501200001
 20
152.82
 30
0.0
 11
30.39999501200001
 21
153.22
 31
0.0
  0
LINE
  5
4EA
330
1F
100
AcDbEntity
  8
dim
100
AcDbLine
 10
29.39999501200001
 20
156.82
 30
0.0
 11
28.89999501200001
 21
156.82
 31
0.0
  0
LINE
  5
4EB
330
1F
100
AcDbEntity
  8
dim
100
AcDbLine
 10
28.89999501200001
 20
156.82
 30
0.0
 11
28.89999501200001
 21
155.82
 31
0.0
  0
LINE
  5
4EC
330
1F
100
AcDbEntity
  8
dim
100
AcDbLine
 10
28.89999501200001
 20
155.82
 30
0.0
 11
29.39999501200001
 21
155.82
 31
0.0
  0
LINE
  5
4ED
330
1F
100
AcDbEntity
  8
dim
100
AcDbLine
 10
29.39999501200001
 20
156.82
 30
0.0
 11
29.39999501200001
 21
158.92
 31
0.0
  0
LINE
  5
4EE
330
1F
100
AcDbEntity
  8
dim
100
AcDbLine
 10
29.39999501200001
 20
153.72
 30
0.0
 11
29.39999501200001
 21
155.82
 31
0.0
  0
LINE
  5
4EF
330
1F
100
AcDbEntity
  8
dim
100
AcDbLine
 10
18.8
 20
148.17
 30
0.0
 11
18.8
 21
150.97
 31
0.0
  0
LINE
  5
4F0
330
1F
100
AcDbEntity
  8
dim
100
AcDbLine
 10
18.8
 20
155.47
 30
0.0
 11
18.8
 21
150.97
 31
0.0
  0
LINE
  5
4F1
330
1F
100
AcDbEntity
  8
dim
100
AcDbLine
 10
19.799995012
 20
148.32
 30
0.0
 11
19.799995012
 21
155.32
 31
0.0
  0
LINE
  5
4F2
330
1F
100
AcDbEntity
  8
dim
100
AcDbLine
 10
19.799995012
 20
148.32
 30
0.0
 11
19.799995012
 21
155.32
 31
0.0
  0
LINE
  5
4F3
330
1F
100
AcDbEntity
  8
dim
100
AcDbLine
 10
22.299995012
 20
148.92
 30
0.0
 11
23.299995012
 21
148.92
 31
0.0
  0
LINE
  5
4F4
330
1F
100
AcDbEntity
  8
dim
100
AcDbLine
 10
22.299995012
 20
151.82
 30
0.0
 11
21.39999501200001
 21
151.22
 31
0.0
  0
LINE
  5
4F5
330
1F
100
AcDbEntity
  8
dim
100
AcDbLine
 10
22.299995012
 20
152.42
 30
0.0
 11
21.39999501200001
 21
151.82
 31
0.0
  0
LINE
  5
4F6
330
1F
100
AcDbEntity
  8
dim
100
AcDbLine
 10
22.299995012
 20
148.92
 30
0.0
 11
21.39999501200001
 21
148.92
 31
0.0
  0
LINE
  5
4F7
330
1F
100
AcDbEntity
  8
dim
100
AcDbLine
 10
22.299995012
 20
154.72
 30
0.0
 11
21.39999501200001
 21
154.72
 31
0.0
  0
LINE
  5
4F8
330
1F
100
AcDbEntity
  8
dim
100
AcDbLine
 10
22.299995012
 20
148.92
 30
0.0
 11
22.299995012
 21
154.72
 31
0.0
  0
LINE
  5
4F9
330
1F
100
AcDbEntity
  8
dim
100
AcDbLine
 10
24.299995012
 20
149.92
 30
0.0
 11
24.299995012
 21
151.82
 31
0.0
  0
ARC
  5
4FA
330
1F
100
AcDbEntity
  8
dim
100
AcDbCircle
 10
23.299995012
 20
149.92
 30
0.0
 40
1.0
100
AcDbArc
 50
270.0
 51
0.0
  0
LINE
  5
4FB
330
1F
100
AcDbEntity
  8
dim
100
AcDbLine
 10
24.299995012
 20
153.72
 30
0.0
 11
24.299995012
 21
151.82
 31
0.0
  0
ARC
  5
4FC
330
1F
100
AcDbEntity
  8
dim
100
AcDbCircle
 10
23.299995012
 20
153.72
 30
0.0
 40
1.0
100
AcDbArc
 50
0.0
 51
90.0
  0
LINE
  5
4FD
330
1F
100
AcDbEntity
  8
dim
100
AcDbLine
 10
22.299995012
 20
154.72
 30
0.0
 11
23.299995012
 21
154.72
 31
0.0
  0
LINE
  5
4FE
330
1F
100
AcDbEntity
  8
dim
100
AcDbLine
 10
24.299995012
 20
153.72
 30
0.0
 11
24.299995012
 21
151.82
 31
0.0
  0
ARC
  5
4FF
330
1F
100
AcDbEntity
  8
dim
100
AcDbCircle
 10
23.299995012
 20
153.72
 30
0.0
 40
1.0
100
AcDbArc
 50
0.0
 51
90.0
  0
LINE
  5
500
330
1F
100
AcDbEntity
  8
dim
100
AcDbLine
 10
24.299995012
 20
149.92
 30
0.0
 11
24.299995012
 21
151.82
 31
0.0
  0
ARC
  5
501
330
1F
100
AcDbEntity
  8
dim
100
AcDbCircle
 10
23.299995012
 20
149.92
 30
0.0
 40
1.0
100
AcDbArc
 50
270.0
 51
0.0
  0
LINE
  5
502
330
1F
100
AcDbEntity
  8
dim
100
AcDbLine
 10
20.39999501200001
 20
155.32
 30
0.0
 11
19.799995012
 21
155.32
 31
0.0
  0
LINE
  5
503
330
1F
100
AcDbEntity
  8
dim
100
AcDbLine
 10
19.799995012
 20
155.32
 30
0.0
 11
20.39999501200001
 21
153.17
 31
0.0
  0
LINE
  5
504
330
1F
100
AcDbEntity
  8
dim
100
AcDbLine
 10
20.39999501200001
 20
154.42
 30
0.0
 11
19.799995012
 21
155.32
 31
0.0
  0
LINE
  5
505
330
1F
100
AcDbEntity
  8
dim
100
AcDbLine
 10
20.39999501200001
 20
148.32
 30
0.0
 11
19.799995012
 21
148.32
 31
0.0
  0
LINE
  5
506
330
1F
100
AcDbEntity
  8
dim
100
AcDbLine
 10
19.799995012
 20
148.32
 30
0.0
 11
20.39999501200001
 21
150.47
 31
0.0
  0
LINE
  5
507
330
1F
100
AcDbEntity
  8
dim
100
AcDbLine
 10
20.39999501200001
 20
149.22
 30
0.0
 11
19.799995012
 21
148.32
 31
0.0
  0
LINE
  5
508
330
1F
100
AcDbEntity
  8
dim
100
AcDbLine
 10
21.39999501200001
 20
154.92
 30
0.0
 11
21.39999501200001
 21
151.82
 31
0.0
  0
LWPOLYLINE
  5
509
330
1F
100
AcDbEntity
  8
dim
100
AcDbPolyline
 90
        3
 70
     0
 43
0.0
 10
20.39999501200001
 20
155.32
 10
20.89999501200001
 20
155.32
 10
21.39999501200001
 20
154.92
  0
LINE
  5
50A
330
1F
100
AcDbEntity
  8
dim
100
AcDbLine
 10
20.39999501200001
 20
148.32
 30
0.0
 11
20.89999501200001
 21
148.32
 31
0.0
  0
LINE
  5
50B
330
1F
100
AcDbEntity
  8
dim
100
AcDbLine
 10
21.39999501200001
 20
148.72
 30
0.0
 11
21.39999501200001
 21
151.82
 31
0.0
  0
LINE
  5
50C
330
1F
100
AcDbEntity
  8
dim
100
AcDbLine
 10
20.89999501200001
 20
148.32
 30
0.0
 11
21.39999501200001
 21
148.72
 31
0.0
  0
LINE
  5
50D
330
1F
100
AcDbEntity
  8
dim
100
AcDbLine
 10
20.39999501200001
 20
152.32
 30
0.0
 11
19.89999501200001
 21
152.32
 31
0.0
  0
LINE
  5
50E
330
1F
100
AcDbEntity
  8
dim
100
AcDbLine
 10
19.89999501200001
 20
152.32
 30
0.0
 11
19.89999501200001
 21
151.32
 31
0.0
  0
LINE
  5
50F
330
1F
100
AcDbEntity
  8
dim
100
AcDbLine
 10
19.89999501200001
 20
151.32
 30
0.0
 11
20.39999501200001
 21
151.32
 31
0.0
  0
LINE
  5
510
330
1F
100
AcDbEntity
  8
dim
100
AcDbLine
 10
20.39999501200001
 20
152.32
 30
0.0
 11
20.39999501200001
 21
154.42
 31
0.0
  0
LINE
  5
511
330
1F
100
AcDbEntity
  8
dim
100
AcDbLine
 10
20.39999501200001
 20
149.22
 30
0.0
 11
20.39999501200001
 21
151.32
 31
0.0
  0
LINE
  5
512
330
1F
100
AcDbEntity
  8
dim
100
AcDbLine
 10
38.8
 20
163.07
 30
0.0
 11
38.8
 21
161.62
 31
0.0
  0
LINE
  5
513
330
1F
100
AcDbEntity
  8
dim
100
AcDbLine
 10
37.001
 20
169.07
 30
0.0
 11
37.001
 21
171.07
 31
0.0
  0
LINE
  5
514
330
1F
100
AcDbEntity
  8
dim
100
AcDbLine
 10
37.001
 20
148.07
 30
0.0
 11
37.001
 21
146.07
 31
0.0
  0
LINE
  5
515
330
1F
100
AcDbEntity
  8
dim
100
AcDbLine
 10
40.2
 20
168.059526961
 30
0.0
 11
40.2
 21
166.580473039
 31
0.0
  0
LINE
  5
516
330
1F
100
AcDbEntity
  8
dim
100
AcDbLine
 10
40.2
 20
165.559526961
 30
0.0
 11
40.2
 21
164.080473039
 31
0.0
  0
LINE
  5
517
330
1F
100
AcDbEntity
  8
dim
100
AcDbLine
 10
40.2
 20
163.059526961
 30
0.0
 11
40.2
 21
161.580473039
 31
0.0
  0
LINE
  5
518
330
1F
100
AcDbEntity
  8
dim
100
AcDbLine
 10
40.2
 20
160.559526961
 30
0.0
 11
40.2
 21
159.080473039
 31
0.0
  0
LINE
  5
519
330
1F
100
AcDbEntity
  8
dim
100
AcDbLine
 10
40.2
 20
158.059526961
 30
0.0
 11
40.2
 21
156.580473039
 31
0.0
  0
LINE
  5
51A
330
1F
100
AcDbEntity
  8
dim
100
AcDbLine
 10
40.2
 20
155.559526961
 30
0.0
 11
40.2
 21
154.080473039
 31
0.0
  0
LINE
  5
51B
330
1F
100
AcDbEntity
  8
dim
100
AcDbLine
 10
40.2
 20
153.059526961
 30
0.0
 11
40.2
 21
151.580473039
 31
0.0
  0
LINE
  5
51C
330
1F
100
AcDbEntity
  8
dim
100
AcDbLine
 10
40.2
 20
150.559526961
 30
0.0
 11
40.2
 21
149.080473039
 31
0.0
  0
LINE
  5
51D
330
1F
100
AcDbEntity
  8
dim
100
AcDbLine
 10
40.8
 20
149.07
 30
0.0
 11
40.8
 21
147.07
 31
0.0
  0
LINE
  5
51E
330
1F
100
AcDbEntity
  8
dim
100
AcDbLine
 10
40.8
 20
151.57
 30
0.0
 11
40.8
 21
150.57
 31
0.0
  0
LINE
  5
51F
330
1F
100
AcDbEntity
  8
dim
100
AcDbLine
 10
40.8
 20
154.07
 30
0.0
 11
40.8
 21
153.07
 31
0.0
  0
LINE
  5
520
330
1F
100
AcDbEntity
  8
dim
100
AcDbLine
 10
40.8
 20
156.57
 30
0.0
 11
40.8
 21
155.57
 31
0.0
  0
LINE
  5
521
330
1F
100
AcDbEntity
  8
dim
100
AcDbLine
 10
40.8
 20
159.07
 30
0.0
 11
40.8
 21
158.07
 31
0.0
  0
LINE
  5
522
330
1F
100
AcDbEntity
  8
dim
100
AcDbLine
 10
40.8
 20
161.57
 30
0.0
 11
40.8
 21
160.57
 31
0.0
  0
LINE
  5
523
330
1F
100
AcDbEntity
  8
dim
100
AcDbLine
 10
40.8
 20
164.07
 30
0.0
 11
40.8
 21
163.07
 31
0.0
  0
LINE
  5
524
330
1F
100
AcDbEntity
  8
dim
100
AcDbLine
 10
40.8
 20
166.57
 30
0.0
 11
40.8
 21
165.57
 31
0.0
  0
LINE
  5
525
330
1F
100
AcDbEntity
  8
dim
100
AcDbLine
 10
40.8
 20
170.07
 30
0.0
 11
40.8
 21
168.07
 31
0.0
  0
LINE
  5
526
330
1F
100
AcDbEntity
  8
dim
100
AcDbLine
 10
34.151
 20
149.32
 30
0.0
 11
35.801
 21
149.32
 31
0.0
  0
LINE
  5
527
330
1F
100
AcDbEntity
  8
dim
100
AcDbLine
 10
34.151
 20
167.82
 30
0.0
 11
35.801
 21
167.82
 31
0.0
  0
ARC
  5
528
330
1F
100
AcDbEntity
  8
dim
100
AcDbCircle
 10
36.751
 20
168.57
 30
0.0
 40
0.25
100
AcDbArc
 50
0.0
 51
90.00015455
  0
LINE
  5
529
330
1F
100
AcDbEntity
  8
dim
100
AcDbLine
 10
36.644164777
 20
168.82
 30
0.0
 11
36.750999326
 21
168.82
 31
0.0
  0
ARC
  5
52A
330
1F
100
AcDbEntity
  8
dim
100
AcDbCircle
 10
36.751
 20
148.57
 30
0.0
 40
0.25
100
AcDbArc
 50
270.0
 51
0.0
  0
LINE
  5
52B
330
1F
100
AcDbEntity
  8
dim
100
AcDbLine
 10
34.151
 20
148.57
 30
0.0
 11
34.151
 21
149.32
 31
0.0
  0
LINE
  5
52C
330
1F
100
AcDbEntity
  8
dim
100
AcDbLine
 10
36.751
 20
148.32
 30
0.0
 11
34.401
 21
148.32
 31
0.0
  0
ARC
  5
52D
330
1F
100
AcDbEntity
  8
dim
100
AcDbCircle
 10
34.401
 20
148.57
 30
0.0
 40
0.25
100
AcDbArc
 50
180.0
 51
270.0
  0
LINE
  5
52E
330
1F
100
AcDbEntity
  8
dim
100
AcDbLine
 10
36.751
 20
168.82
 30
0.0
 11
34.401
 21
168.82
 31
0.0
  0
LINE
  5
52F
330
1F
100
AcDbEntity
  8
dim
100
AcDbLine
 10
34.151
 20
168.57
 30
0.0
 11
34.151
 21
167.82
 31
0.0
  0
ARC
  5
530
330
1F
100
AcDbEntity
  8
dim
100
AcDbCircle
 10
34.401
 20
168.57
 30
0.0
 40
0.25
100
AcDbArc
 50
90.0
 51
180.0
  0
LINE
  5
531
330
1F
100
AcDbEntity
  8
dim
100
AcDbLine
 10
37.001
 20
148.57
 30
0.0
 11
37.001
 21
168.57
 31
0.0
  0
LINE
  5
532
330
1F
100
AcDbEntity
  8
dim
100
AcDbLine
 10
35.801
 20
168.82
 30
0.0
 11
35.801
 21
148.32
 31
0.0
  0
LINE
  5
533
330
1F
100
AcDbEntity
  8
dim
100
AcDbLine
 10
36.601
 20
148.07
 30
0.0
 11
36.601
 21
148.32
 31
0.0
  0
ARC
  5
534
330
1F
100
AcDbEntity
  8
dim
100
AcDbCircle
 10
35.35677842299999
 20
148.62
 30
0.0
 40
0.7499999999999832
100
AcDbArc
 50
312.8334280660007
 51
336.4218215220006
  0
ARC
  5
535
330
1F
100
AcDbEntity
  8
dim
100
AcDbCircle
 10
35.35677842299999
 20
148.62
 30
0.0
 40
0.7500000000000004
100
AcDbArc
 50
203.578178477999
 51
227.166571933999
  0
LINE
  5
536
330
1F
100
AcDbEntity
  8
dim
100
AcDbLine
 10
34.3
 20
148.341310254
 30
0.0
 11
34.3
 21
148.07
 31
0.0
  0
LINE
  5
537
330
1F
100
AcDbEntity
  8
dim
100
AcDbLine
 10
34.3
 20
152.67
 30
0.0
 11
34.3
 21
149.32
 31
0.0
  0
LINE
  5
538
330
1F
100
AcDbEntity
  8
dim
100
AcDbLine
 10
36.601
 20
169.07
 30
0.0
 11
36.601
 21
168.82
 31
0.0
  0
ARC
  5
539
330
1F
100
AcDbEntity
  8
dim
100
AcDbCircle
 10
35.35677842299999
 20
168.52
 30
0.0
 40
0.7500000000000063
100
AcDbArc
 50
132.8334280649998
 51
156.4218215219998
  0
ARC
  5
53A
330
1F
100
AcDbEntity
  8
dim
100
AcDbCircle
 10
35.35677842299999
 20
168.52
 30
0.0
 40
0.7500000000000004
100
AcDbArc
 50
23.57817847799902
 51
47.16657193499903
  0
LINE
  5
53B
330
1F
100
AcDbEntity
  8
dim
100
AcDbLine
 10
40.8
 20
150.57
 30
0.0
 11
37.001
 21
150.503688208
 31
0.0
  0
LINE
  5
53C
330
1F
100
AcDbEntity
  8
dim
100
AcDbLine
 10
40.8
 20
150.57
 30
0.0
 11
37.001
 21
150.503688208
 31
0.0
  0
LINE
  5
53D
330
1F
100
AcDbEntity
  8
dim
100
AcDbLine
 10
40.8
 20
149.07
 30
0.0
 11
37.001
 21
149.136311792
 31
0.0
  0
LINE
  5
53E
330
1F
100
AcDbEntity
  8
dim
100
AcDbLine
 10
40.8
 20
149.07
 30
0.0
 11
37.001
 21
149.136311792
 31
0.0
  0
LINE
  5
53F
330
1F
100
AcDbEntity
  8
dim
100
AcDbLine
 10
40.8
 20
151.57
 30
0.0
 11
37.001
 21
151.636311792
 31
0.0
  0
LINE
  5
540
330
1F
100
AcDbEntity
  8
dim
100
AcDbLine
 10
40.8
 20
151.57
 30
0.0
 11
37.001
 21
151.636311792
 31
0.0
  0
LINE
  5
541
330
1F
100
AcDbEntity
  8
dim
100
AcDbLine
 10
40.8
 20
153.07
 30
0.0
 11
37.001
 21
153.003688208
 31
0.0
  0
LINE
  5
542
330
1F
100
AcDbEntity
  8
dim
100
AcDbLine
 10
40.8
 20
153.07
 30
0.0
 11
37.001
 21
153.003688208
 31
0.0
  0
LINE
  5
543
330
1F
100
AcDbEntity
  8
dim
100
AcDbLine
 10
40.8
 20
154.07
 30
0.0
 11
37.001
 21
154.136311792
 31
0.0
  0
LINE
  5
544
330
1F
100
AcDbEntity
  8
dim
100
AcDbLine
 10
40.8
 20
154.07
 30
0.0
 11
37.001
 21
154.136311792
 31
0.0
  0
LINE
  5
545
330
1F
100
AcDbEntity
  8
dim
100
AcDbLine
 10
40.8
 20
155.57
 30
0.0
 11
37.001
 21
155.503688208
 31
0.0
  0
LINE
  5
546
330
1F
100
AcDbEntity
  8
dim
100
AcDbLine
 10
40.8
 20
155.57
 30
0.0
 11
37.001
 21
155.503688208
 31
0.0
  0
LINE
  5
547
330
1F
100
AcDbEntity
  8
dim
100
AcDbLine
 10
40.8
 20
156.57
 30
0.0
 11
37.001
 21
156.636311792
 31
0.0
  0
LINE
  5
548
330
1F
100
AcDbEntity
  8
dim
100
AcDbLine
 10
40.8
 20
156.57
 30
0.0
 11
37.001
 21
156.636311792
 31
0.0
  0
LINE
  5
549
330
1F
100
AcDbEntity
  8
dim
100
AcDbLine
 10
40.8
 20
158.07
 30
0.0
 11
37.001
 21
158.003688208
 31
0.0
  0
LINE
  5
54A
330
1F
100
AcDbEntity
  8
dim
100
AcDbLine
 10
40.8
 20
158.07
 30
0.0
 11
37.001
 21
158.003688208
 31
0.0
  0
LINE
  5
54B
330
1F
100
AcDbEntity
  8
dim
100
AcDbLine
 10
40.8
 20
159.07
 30
0.0
 11
37.001
 21
159.136311792
 31
0.0
  0
LINE
  5
54C
330
1F
100
AcDbEntity
  8
dim
100
AcDbLine
 10
40.8
 20
159.07
 30
0.0
 11
37.001
 21
159.136311792
 31
0.0
  0
LINE
  5
54D
330
1F
100
AcDbEntity
  8
dim
100
AcDbLine
 10
40.8
 20
160.57
 30
0.0
 11
37.001
 21
160.503688208
 31
0.0
  0
LINE
  5
54E
330
1F
100
AcDbEntity
  8
dim
100
AcDbLine
 10
40.8
 20
160.57
 30
0.0
 11
37.001
 21
160.503688208
 31
0.0
  0
LINE
  5
54F
330
1F
100
AcDbEntity
  8
dim
100
AcDbLine
 10
40.8
 20
161.57
 30
0.0
 11
37.001
 21
161.636311792
 31
0.0
  0
LINE
  5
550
330
1F
100
AcDbEntity
  8
dim
100
AcDbLine
 10
40.8
 20
161.57
 30
0.0
 11
37.001
 21
161.636311792
 31
0.0
  0
LINE
  5
551
330
1F
100
AcDbEntity
  8
dim
100
AcDbLine
 10
40.8
 20
163.07
 30
0.0
 11
37.001
 21
163.003688208
 31
0.0
  0
LINE
  5
552
330
1F
100
AcDbEntity
  8
dim
100
AcDbLine
 10
40.8
 20
163.07
 30
0.0
 11
37.001
 21
163.003688208
 31
0.0
  0
LINE
  5
553
330
1F
100
AcDbEntity
  8
dim
100
AcDbLine
 10
40.8
 20
164.07
 30
0.0
 11
37.001
 21
164.136311792
 31
0.0
  0
LINE
  5
554
330
1F
100
AcDbEntity
  8
dim
100
AcDbLine
 10
40.8
 20
164.07
 30
0.0
 11
37.001
 21
164.136311792
 31
0.0
  0
LINE
  5
555
330
1F
100
AcDbEntity
  8
dim
100
AcDbLine
 10
40.8
 20
165.57
 30
0.0
 11
37.001
 21
165.503688208
 31
0.0
  0
LINE
  5
556
330
1F
100
AcDbEntity
  8
dim
100
AcDbLine
 10
40.8
 20
165.57
 30
0.0
 11
37.001
 21
165.503688208
 31
0.0
  0
LINE
  5
557
330
1F
100
AcDbEntity
  8
dim
100
AcDbLine
 10
40.8
 20
166.57
 30
0.0
 11
37.001
 21
166.636311792
 31
0.0
  0
LINE
  5
558
330
1F
100
AcDbEntity
  8
dim
100
AcDbLine
 10
40.8
 20
166.57
 30
0.0
 11
37.001
 21
166.636311792
 31
0.0
  0
LINE
  5
559
330
1F
100
AcDbEntity
  8
dim
100
AcDbLine
 10
40.8
 20
168.07
 30
0.0
 11
37.001
 21
168.003688208
 31
0.0
  0
LINE
  5
55A
330
1F
100
AcDbEntity
  8
dim
100
AcDbLine
 10
40.8
 20
168.07
 30
0.0
 11
37.001
 21
168.003688208
 31
0.0
  0
LINE
  5
55B
330
1F
100
AcDbEntity
  8
dim
100
AcDbLine
 10
167.97
 20
37.65000000000002
 30
0.0
 11
167.97
 21
32.35000000000001
 31
0.0
  0
LINE
  5
55C
330
1F
100
AcDbEntity
  8
dim
100
AcDbLine
 10
167.97
 20
36.10000000000001
 30
0.0
 11
167.97
 21
32.35000000000001
 31
0.0
  0
LINE
  5
55D
330
1F
100
AcDbEntity
  8
dim
100
AcDbLine
 10
167.97
 20
20.95000000000002
 30
0.0
 11
167.97
 21
15.65000000000002
 31
0.0
  0
LINE
  5
55E
330
1F
100
AcDbEntity
  8
dim
100
AcDbLine
 10
168.97
 20
20.95000000000002
 30
0.0
 11
168.97
 21
14.65000000000002
 31
0.0
  0
LINE
  5
55F
330
1F
100
AcDbEntity
  8
dim
100
AcDbLine
 10
168.97
 20
38.65000000000002
 30
0.0
 11
168.97
 21
32.35000000000001
 31
0.0
  0
ARC
  5
560
330
1F
100
AcDbEntity
  8
dim
100
AcDbCircle
 10
172.07
 20
153.87
 30
0.0
 40
1.0
100
AcDbArc
 50
270.0
 51
0.0
  0
LINE
  5
561
330
1F
100
AcDbEntity
  8
dim
100
AcDbLine
 10
171.47
 20
152.87
 30
0.0
 11
172.07
 21
152.87
 31
0.0
  0
LINE
  5
562
330
1F
100
AcDbEntity
  8
dim
100
AcDbLine
 10
171.57
 20
154.57
 30
0.0
 11
170.37
 21
154.57
 31
0.0
  0
LINE
  5
563
330
1F
100
AcDbEntity
  8
dim
100
AcDbLine
 10
168.97
 20
152.87
 30
0.0
 11
171.47
 21
152.87
 31
0.0
  0
ARC
  5
564
330
1F
100
AcDbEntity
  8
dim
100
AcDbCircle
 10
172.07
 20
163.27
 30
0.0
 40
1.0
100
AcDbArc
 50
0.0
 51
90.0
  0
LINE
  5
565
330
1F
100
AcDbEntity
  8
dim
100
AcDbLine
 10
172.07
 20
164.27
 30
0.0
 11
171.47
 21
164.27
 31
0.0
  0
LINE
  5
566
330
1F
100
AcDbEntity
  8
dim
100
AcDbLine
 10
170.37
 20
162.57
 30
0.0
 11
171.57
 21
162.57
 31
0.0
  0
LINE
  5
567
330
1F
100
AcDbEntity
  8
dim
100
AcDbLine
 10
168.97
 20
164.27
 30
0.0
 11
171.47
 21
164.27
 31
0.0
  0
LINE
  5
568
330
1F
100
AcDbEntity
  8
dim
100
AcDbLine
 10
173.07
 20
153.87
 30
0.0
 11
173.07
 21
163.27
 31
0.0
  0
LINE
  5
569
330
1F
100
AcDbEntity
  8
dim
100
AcDbLine
 10
171.57
 20
162.57
 30
0.0
 11
171.57
 21
154.57
 31
0.0
  0
LINE
  5
56A
330
1F
100
AcDbEntity
  8
dim
100
AcDbLine
 10
170.37
 20
154.57
 30
0.0
 11
170.37
 21
162.57
 31
0.0
  0
ARC
  5
56B
330
1F
100
AcDbEntity
  8
dim
100
AcDbCircle
 10
321.67
 20
21.95000000000002
 30
0.0
 40
1.0
100
AcDbArc
 50
270.0
 51
0.0
  0
LINE
  5
56C
330
1F
100
AcDbEntity
  8
dim
100
AcDbLine
 10
321.0700000000001
 20
20.95000000000002
 30
0.0
 11
321.67
 21
20.95000000000002
 31
0.0
  0
LINE
  5
56D
330
1F
100
AcDbEntity
  8
dim
100
AcDbLine
 10
321.17
 20
22.65000000000002
 30
0.0
 11
319.97
 21
22.65000000000002
 31
0.0
  0
LINE
  5
56E
330
1F
100
AcDbEntity
  8
dim
100
AcDbLine
 10
318.5700000000001
 20
20.95000000000002
 30
0.0
 11
321.0700000000001
 21
20.95000000000002
 31
0.0
  0
ARC
  5
56F
330
1F
100
AcDbEntity
  8
dim
100
AcDbCircle
 10
321.67
 20
31.35000000000001
 30
0.0
 40
1.0
100
AcDbArc
 50
0.0
 51
90.0
  0
LINE
  5
570
330
1F
100
AcDbEntity
  8
dim
100
AcDbLine
 10
321.67
 20
32.35000000000001
 30
0.0
 11
321.0700000000001
 21
32.35000000000001
 31
0.0
  0
LINE
  5
571
330
1F
100
AcDbEntity
  8
dim
100
AcDbLine
 10
319.97
 20
30.65000000000002
 30
0.0
 11
321.17
 21
30.65000000000002
 31
0.0
  0
LINE
  5
572
330
1F
100
AcDbEntity
  8
dim
100
AcDbLine
 10
318.5700000000001
 20
32.35000000000001
 30
0.0
 11
321.0700000000001
 21
32.35000000000001
 31
0.0
  0
LINE
  5
573
330
1F
100
AcDbEntity
  8
dim
100
AcDbLine
 10
322.67
 20
21.95000000000002
 30
0.0
 11
322.67
 21
31.35000000000001
 31
0.0
  0
LINE
  5
574
330
1F
100
AcDbEntity
  8
dim
100
AcDbLine
 10
321.17
 20
30.65000000000002
 30
0.0
 11
321.17
 21
22.65000000000002
 31
0.0
  0
LINE
  5
575
330
1F
100
AcDbEntity
  8
dim
100
AcDbLine
 10
319.97
 20
22.65000000000002
 30
0.0
 11
319.97
 21
30.65000000000002
 31
0.0
  0
LINE
  5
576
330
1F
100
AcDbEntity
  8
dim
100
AcDbLine
 10
271.5700000000001
 20
36.95000000000002
 30
0.0
 11
295.37
 21
36.95000000000002
 31
0.0
  0
LINE
  5
577
330
1F
100
AcDbEntity
  8
dim
100
AcDbLine
 10
305.144827688
 20
32.31512180600001
 30
0.0
 11
305.144827688
 21
32.31512180600001
 31
0.0
  0
LINE
  5
578
330
1F
100
AcDbEntity
  8
dim
100
AcDbLine
 10
296.05
 20
14.15000000000002
 30
0.0
 11
297.0700000000001
 21
14.15000000000002
 31
0.0
  0
LINE
  5
579
330
1F
100
AcDbEntity
  8
dim
100
AcDbLine
 10
297.0700000000001
 20
39.15000000000002
 30
0.0
 11
296.05
 21
39.15000000000002
 31
0.0
  0
TEXT
  5
57A
330
1F
100
AcDbEntity
  8
dim
100
AcDbText
 10
314.17
 20
14.60000000000001
 30
0.0
 40
2.0
  1
７
 50
90.0
  7
title1
100
AcDbText
  0
TEXT
  5
57B
330
1F
100
AcDbEntity
  8
dim
100
AcDbText
 10
314.12
 20
37.45000000000002
 30
0.0
 40
2.0
  1
８
 50
90.0
  7
title1
100
AcDbText
  0
TEXT
  5
57C
330
1F
100
AcDbEntity
  8
dim
100
AcDbText
 10
305.95
 20
14.51000000000002
 30
0.0
 40
2.0
  1
５
 50
90.0
  7
title1
100
AcDbText
  0
ARC
  5
57D
330
1F
100
AcDbEntity
  8
dim
100
AcDbCircle
 10
318.0700000000001
 20
38.65000000000002
 30
0.0
 40
0.5
100
AcDbArc
 50
0.0
 51
90.0
  0
LINE
  5
57E
330
1F
100
AcDbEntity
  8
dim
100
AcDbLine
 10
318.5700000000001
 20
14.65000000000002
 30
0.0
 11
318.5700000000001
 21
38.65000000000002
 31
0.0
  0
ARC
  5
57F
330
1F
100
AcDbEntity
  8
dim
100
AcDbCircle
 10
318.0700000000001
 20
14.65000000000002
 30
0.0
 40
0.5
100
AcDbArc
 50
270.0
 51
0.0
  0
LINE
  5
580
330
1F
100
AcDbEntity
  8
dim
100
AcDbLine
 10
297.47
 20
34.65000000000002
 30
0.0
 11
297.47
 21
33.65000000000002
 31
0.0
  0
LINE
  5
581
330
1F
100
AcDbEntity
  8
dim
100
AcDbLine
 10
297.47
 20
32.15000000000002
 30
0.0
 11
297.47
 21
31.15000000000002
 31
0.0
  0
LINE
  5
582
330
1F
100
AcDbEntity
  8
dim
100
AcDbLine
 10
297.47
 20
29.65000000000002
 30
0.0
 11
297.47
 21
28.65000000000002
 31
0.0
  0
LINE
  5
583
330
1F
100
AcDbEntity
  8
dim
100
AcDbLine
 10
297.47
 20
27.15000000000002
 30
0.0
 11
297.47
 21
26.15000000000002
 31
0.0
  0
LINE
  5
584
330
1F
100
AcDbEntity
  8
dim
100
AcDbLine
 10
297.47
 20
24.65000000000002
 30
0.0
 11
297.47
 21
23.65000000000002
 31
0.0
  0
LINE
  5
585
330
1F
100
AcDbEntity
  8
dim
100
AcDbLine
 10
297.47
 20
22.15000000000002
 30
0.0
 11
297.47
 21
21.15000000000002
 31
0.0
  0
LINE
  5
586
330
1F
100
AcDbEntity
  8
dim
100
AcDbLine
 10
297.47
 20
19.65000000000002
 30
0.0
 11
297.47
 21
18.65000000000002
 31
0.0
  0
LINE
  5
587
330
1F
100
AcDbEntity
  8
dim
100
AcDbLine
 10
296.87
 20
36.15000000000002
 30
0.0
 11
297.47
 21
36.15000000000002
 31
0.0
  0
LINE
  5
588
330
1F
100
AcDbEntity
  8
dim
100
AcDbLine
 10
296.87
 20
34.65000000000002
 30
0.0
 11
297.47
 21
34.65000000000002
 31
0.0
  0
LINE
  5
589
330
1F
100
AcDbEntity
  8
dim
100
AcDbLine
 10
296.87
 20
33.65000000000002
 30
0.0
 11
297.47
 21
33.65000000000002
 31
0.0
  0
LINE
  5
58A
330
1F
100
AcDbEntity
  8
dim
100
AcDbLine
 10
296.87
 20
32.15000000000002
 30
0.0
 11
297.47
 21
32.15000000000002
 31
0.0
  0
LINE
  5
58B
330
1F
100
AcDbEntity
  8
dim
100
AcDbLine
 10
296.87
 20
31.15000000000002
 30
0.0
 11
297.47
 21
31.15000000000002
 31
0.0
  0
LINE
  5
58C
330
1F
100
AcDbEntity
  8
dim
100
AcDbLine
 10
296.87
 20
29.65000000000002
 30
0.0
 11
297.47
 21
29.65000000000002
 31
0.0
  0
LINE
  5
58D
330
1F
100
AcDbEntity
  8
dim
100
AcDbLine
 10
296.87
 20
28.65000000000002
 30
0.0
 11
297.47
 21
28.65000000000002
 31
0.0
  0
LINE
  5
58E
330
1F
100
AcDbEntity
  8
dim
100
AcDbLine
 10
296.87
 20
27.15000000000002
 30
0.0
 11
297.47
 21
27.15000000000002
 31
0.0
  0
LINE
  5
58F
330
1F
100
AcDbEntity
  8
dim
100
AcDbLine
 10
296.87
 20
26.15000000000002
 30
0.0
 11
297.47
 21
26.15000000000002
 31
0.0
  0
LINE
  5
590
330
1F
100
AcDbEntity
  8
dim
100
AcDbLine
 10
296.87
 20
24.65000000000002
 30
0.0
 11
297.47
 21
24.65000000000002
 31
0.0
  0
LINE
  5
591
330
1F
100
AcDbEntity
  8
dim
100
AcDbLine
 10
296.87
 20
23.65000000000002
 30
0.0
 11
297.47
 21
23.65000000000002
 31
0.0
  0
LINE
  5
592
330
1F
100
AcDbEntity
  8
dim
100
AcDbLine
 10
296.87
 20
22.15000000000002
 30
0.0
 11
297.47
 21
22.15000000000002
 31
0.0
  0
LINE
  5
593
330
1F
100
AcDbEntity
  8
dim
100
AcDbLine
 10
296.87
 20
21.15000000000002
 30
0.0
 11
297.47
 21
21.15000000000002
 31
0.0
  0
LINE
  5
594
330
1F
100
AcDbEntity
  8
dim
100
AcDbLine
 10
296.87
 20
19.65000000000002
 30
0.0
 11
297.47
 21
19.65000000000002
 31
0.0
  0
LINE
  5
595
330
1F
100
AcDbEntity
  8
dim
100
AcDbLine
 10
296.87
 20
18.65000000000002
 30
0.0
 11
297.47
 21
18.65000000000002
 31
0.0
  0
LINE
  5
596
330
1F
100
AcDbEntity
  8
dim
100
AcDbLine
 10
296.87
 20
17.15000000000002
 30
0.0
 11
297.47
 21
17.15000000000002
 31
0.0
  0
LINE
  5
597
330
1F
100
AcDbEntity
  8
dim
100
AcDbLine
 10
297.47
 20
17.15000000000002
 30
0.0
 11
297.47
 21
16.25000000000001
 31
0.0
  0
ARC
  5
598
330
1F
100
AcDbEntity
  8
dim
100
AcDbCircle
 10
299.37
 20
38.15000000000002
 30
0.0
 40
1.0
100
AcDbArc
 50
0.0
 51
90.0
  0
LINE
  5
599
330
1F
100
AcDbEntity
  8
dim
100
AcDbLine
 10
299.37
 20
39.15000000000002
 30
0.0
 11
318.0700000000001
 21
39.15000000000002
 31
0.0
  0
ARC
  5
59A
330
1F
100
AcDbEntity
  8
dim
100
AcDbCircle
 10
299.47
 20
15.15000000000002
 30
0.0
 40
1.0
100
AcDbArc
 50
270.0
 51
0.0
  0
LINE
  5
59B
330
1F
100
AcDbEntity
  8
dim
100
AcDbLine
 10
300.47
 20
16.25000000000001
 30
0.0
 11
300.47
 21
15.15000000000002
 31
0.0
  0
LWPOLYLINE
  5
59C
330
1F
100
AcDbEntity
  8
dim
100
AcDbPolyline
 90
        3
 70
     0
 43
0.0
 10
298.5700000000001
 20
37.15000000000002
 10
297.47
 20
37.15000000000002
 10
297.47
 20
36.15000000000002
  0
LINE
  5
59D
330
1F
100
AcDbEntity
  8
dim
100
AcDbLine
 10
316.5700000000001
 20
39.15000000000002
 30
0.0
 11
316.5700000000001
 21
37.15000000000002
 31
0.0
  0
LINE
  5
59E
330
1F
100
AcDbEntity
  8
dim
100
AcDbLine
 10
295.37
 20
36.95000000000002
 30
0.0
 11
296.87
 21
35.45000000000002
 31
0.0
  0
LINE
  5
59F
330
1F
100
AcDbEntity
  8
dim
100
AcDbLine
 10
296.87
 20
16.35000000000001
 30
0.0
 11
296.87
 21
35.45000000000002
 31
0.0
  0
LINE
  5
5A0
330
1F
100
AcDbEntity
  8
dim
100
AcDbLine
 10
296.87
 20
36.15000000000002
 30
0.0
 11
296.87
 21
16.35000000000001
 31
0.0
  0
LINE
  5
5A1
330
1F
100
AcDbEntity
  8
dim
100
AcDbLine
 10
297.47
 20
36.15000000000002
 30
0.0
 11
297.47
 21
34.65000000000002
 31
0.0
  0
LINE
  5
5A2
330
1F
100
AcDbEntity
  8
dim
100
AcDbLine
 10
297.47
 20
33.65000000000002
 30
0.0
 11
297.47
 21
32.15000000000002
 31
0.0
  0
LINE
  5
5A3
330
1F
100
AcDbEntity
  8
dim
100
AcDbLine
 10
297.47
 20
31.15000000000002
 30
0.0
 11
297.47
 21
29.65000000000002
 31
0.0
  0
LINE
  5
5A4
330
1F
100
AcDbEntity
  8
dim
100
AcDbLine
 10
297.47
 20
28.65000000000002
 30
0.0
 11
297.47
 21
27.15000000000002
 31
0.0
  0
LINE
  5
5A5
330
1F
100
AcDbEntity
  8
dim
100
AcDbLine
 10
297.47
 20
26.15000000000002
 30
0.0
 11
297.47
 21
24.65000000000002
 31
0.0
  0
LINE
  5
5A6
330
1F
100
AcDbEntity
  8
dim
100
AcDbLine
 10
297.47
 20
23.65000000000002
 30
0.0
 11
297.47
 21
22.15000000000002
 31
0.0
  0
LINE
  5
5A7
330
1F
100
AcDbEntity
  8
dim
100
AcDbLine
 10
297.47
 20
21.15000000000002
 30
0.0
 11
297.47
 21
19.65000000000002
 31
0.0
  0
LINE
  5
5A8
330
1F
100
AcDbEntity
  8
dim
100
AcDbLine
 10
297.47
 20
18.65000000000002
 30
0.0
 11
297.47
 21
17.15000000000002
 31
0.0
  0
ARC
  5
5A9
330
1F
100
AcDbEntity
  8
dim
100
AcDbCircle
 10
317.97
 20
36.40000000000002
 30
0.0
 40
0.5
100
AcDbArc
 50
0.0
 51
90.0
  0
LINE
  5
5AA
330
1F
100
AcDbEntity
  8
dim
100
AcDbLine
 10
298.0700000000001
 20
36.90000000000002
 30
0.0
 11
297.87
 21
36.90000000000002
 31
0.0
  0
LINE
  5
5AB
330
1F
100
AcDbEntity
  8
dim
100
AcDbLine
 10
297.87
 20
36.90000000000002
 30
0.0
 11
297.87
 21
26.65000000000002
 31
0.0
  0
LINE
  5
5AC
330
1F
100
AcDbEntity
  8
dim
100
AcDbLine
 10
318.47
 20
36.40000000000002
 30
0.0
 11
318.47
 21
26.65000000000002
 31
0.0
  0
LINE
  5
5AD
330
1F
100
AcDbEntity
  8
dim
100
AcDbLine
 10
297.87
 20
16.40000000000002
 30
0.0
 11
297.87
 21
26.65000000000002
 31
0.0
  0
LINE
  5
5AE
330
1F
100
AcDbEntity
  8
dim
100
AcDbLine
 10
298.0700000000001
 20
16.40000000000002
 30
0.0
 11
297.87
 21
16.40000000000002
 31
0.0
  0
LINE
  5
5AF
330
1F
100
AcDbEntity
  8
dim
100
AcDbLine
 10
318.47
 20
16.90000000000002
 30
0.0
 11
318.47
 21
26.65000000000002
 31
0.0
  0
ARC
  5
5B0
330
1F
100
AcDbEntity
  8
dim
100
AcDbCircle
 10
317.97
 20
16.90000000000002
 30
0.0
 40
0.5
100
AcDbArc
 50
270.0
 51
0.0
  0
LINE
  5
5B1
330
1F
100
AcDbEntity
  8
dim
100
AcDbLine
 10
298.0700000000001
 20
16.25000000000001
 30
0.0
 11
298.0700000000001
 21
16.40000000000002
 31
0.0
  0
LINE
  5
5B2
330
1F
100
AcDbEntity
  8
dim
100
AcDbLine
 10
299.27
 20
16.25000000000001
 30
0.0
 11
299.27
 21
16.40000000000002
 31
0.0
  0
LINE
  5
5B3
330
1F
100
AcDbEntity
  8
dim
100
AcDbLine
 10
298.0700000000001
 20
37.15000000000002
 30
0.0
 11
298.0700000000001
 21
36.90000000000002
 31
0.0
  0
ARC
  5
5B4
330
1F
100
AcDbEntity
  8
dim
100
AcDbCircle
 10
314.570221577
 20
36.60000000000001
 30
0.0
 40
0.7500000000000033
100
AcDbArc
 50
132.8334280660008
 51
156.4218215220008
  0
ARC
  5
5B5
330
1F
100
AcDbEntity
  8
dim
100
AcDbCircle
 10
314.570221577
 20
36.60000000000001
 30
0.0
 40
0.7500000000000583
100
AcDbArc
 50
23.57817847799829
 51
47.16657193399828
  0
LINE
  5
5B6
330
1F
100
AcDbEntity
  8
dim
100
AcDbLine
 10
297.87
 20
36.14898987300002
 30
0.0
 11
298.621010127
 21
36.90000000000002
 31
0.0
  0
LINE
  5
5B7
330
1F
100
AcDbEntity
  8
dim
100
AcDbLine
 10
297.87
 20
22.00685424900001
 30
0.0
 11
312.763145751
 21
36.90000000000002
 31
0.0
  0
LINE
  5
5B8
330
1F
100
AcDbEntity
  8
dim
100
AcDbLine
 10
314.177359313
 20
36.90000000000002
 30
0.0
 11
297.87
 21
20.59264068700001
 31
0.0
  0
LINE
  5
5B9
330
1F
100
AcDbEntity
  8
dim
100
AcDbLine
 10
297.87
 20
19.17842712500001
 30
0.0
 11
315.591572875
 21
36.90000000000002
 31
0.0
  0
LINE
  5
5BA
330
1F
100
AcDbEntity
  8
dim
100
AcDbLine
 10
317.005786438
 20
36.90000000000002
 30
0.0
 11
297.87
 21
17.76421356200001
 31
0.0
  0
LINE
  5
5BB
330
1F
100
AcDbEntity
  8
dim
100
AcDbLine
 10
297.92
 20
16.40000000000002
 30
0.0
 11
318.297668399
 21
36.77766839900002
 31
0.0
  0
LINE
  5
5BC
330
1F
100
AcDbEntity
  8
dim
100
AcDbLine
 10
318.47
 20
35.53578643800002
 30
0.0
 11
299.3342135619999
 21
16.40000000000002
 31
0.0
  0
LINE
  5
5BD
330
1F
100
AcDbEntity
  8
dim
100
AcDbLine
 10
300.748427125
 20
16.40000000000002
 30
0.0
 11
318.47
 21
34.12157287500001
 31
0.0
  0
LINE
  5
5BE
330
1F
100
AcDbEntity
  8
dim
100
AcDbLine
 10
318.47
 20
32.70735931300001
 30
0.0
 11
302.162640687
 21
16.40000000000002
 31
0.0
  0
LINE
  5
5BF
330
1F
100
AcDbEntity
  8
dim
100
AcDbLine
 10
303.576854249
 20
16.40000000000002
 30
0.0
 11
318.47
 21
31.29314575100001
 31
0.0
  0
LINE
  5
5C0
330
1F
100
AcDbEntity
  8
dim
100
AcDbLine
 10
318.47
 20
29.87893218800001
 30
0.0
 11
304.991067812
 21
16.40000000000002
 31
0.0
  0
LINE
  5
5C1
330
1F
100
AcDbEntity
  8
dim
100
AcDbLine
 10
306.405281374
 20
16.40000000000002
 30
0.0
 11
318.47
 21
28.46471862600002
 31
0.0
  0
LINE
  5
5C2
330
1F
100
AcDbEntity
  8
dim
100
AcDbLine
 10
317.7189898730001
 20
16.40000000000002
 30
0.0
 11
318.47
 21
17.15101012700002
 31
0.0
  0
CIRCLE
  5
5C3
330
1F
100
AcDbEntity
  8
dim
100
AcDbCircle
 10
163.47
 20
160.82
 30
0.0
 40
2.900000000000006
  0
LINE
  5
5C4
330
1F
100
AcDbEntity
  8
dim
100
AcDbLine
 10
165.544827688
 20
159.735121806
 30
0.0
 11
165.544827688
 21
159.735121806
 31
0.0
  0
LINE
  5
5C5
330
1F
100
AcDbEntity
  8
dim
100
AcDbLine
 10
162.556741801
 20
158.959218714
 30
0.0
 11
161.609218714
 21
159.906741801
 31
0.0
  0
LINE
  5
5C6
330
1F
100
AcDbEntity
  8
dim
100
AcDbLine
 10
164.413456838
 20
158.886593668
 30
0.0
 11
165.403406332
 21
159.876543162
 31
0.0
  0
LINE
  5
5C7
330
1F
100
AcDbEntity
  8
dim
100
AcDbLine
 10
165.443918371
 20
161.846395284
 30
0.0
 11
164.496395284
 21
162.793918371
 31
0.0
  0
LINE
  5
5C8
330
1F
100
AcDbEntity
  8
dim
100
AcDbLine
 10
161.550735804
 20
161.749314702
 30
0.0
 11
162.540685298
 21
162.739264196
 31
0.0
  0
LINE
  5
5C9
330
1F
100
AcDbEntity
  8
dim
100
AcDbLine
 10
161.609218714
 20
159.906741801
 30
0.0
 11
162.50126371
 21
160.798786797
 31
0.0
  0
LINE
  5
5CA
330
1F
100
AcDbEntity
  8
dim
100
AcDbLine
 10
161.550735804
 20
161.749314702
 30
0.0
 11
162.50126371
 21
160.798786797
 31
0.0
  0
LWPOLYLINE
  5
5CB
330
1F
100
AcDbEntity
  8
dim
100
AcDbPolyline
 90
        3
 70
     0
 43
0.0
 10
162.540685298
 20
162.739264196
 10
163.491213203
 20
161.78873629
 10
164.496395284
 20
162.793918371
  0
LINE
  5
5CC
330
1F
100
AcDbEntity
  8
dim
100
AcDbLine
 10
164.43873629
 20
160.841213203
 30
0.0
 11
165.443918371
 21
161.846395284
 31
0.0
  0
LINE
  5
5CD
330
1F
100
AcDbEntity
  8
dim
100
AcDbLine
 10
164.43873629
 20
160.841213203
 30
0.0
 11
165.403406332
 21
159.876543162
 31
0.0
  0
LINE
  5
5CE
330
1F
100
AcDbEntity
  8
dim
100
AcDbLine
 10
163.448786797
 20
159.85126371
 30
0.0
 11
164.413456838
 21
158.886593668
 31
0.0
  0
LINE
  5
5CF
330
1F
100
AcDbEntity
  8
dim
100
AcDbLine
 10
162.556741801
 20
158.959218714
 30
0.0
 11
163.448786797
 21
159.85126371
 31
0.0
  0
CIRCLE
  5
5D0
330
1F
100
AcDbEntity
  8
dim
100
AcDbCircle
 10
163.47
 20
151.82
 30
0.0
 40
2.900000000000006
  0
LINE
  5
5D1
330
1F
100
AcDbEntity
  8
dim
100
AcDbLine
 10
165.544827688
 20
150.735121806
 30
0.0
 11
165.544827688
 21
150.735121806
 31
0.0
  0
LINE
  5
5D2
330
1F
100
AcDbEntity
  8
dim
100
AcDbLine
 10
162.556741801
 20
149.959218714
 30
0.0
 11
161.609218714
 21
150.906741801
 31
0.0
  0
LINE
  5
5D3
330
1F
100
AcDbEntity
  8
dim
100
AcDbLine
 10
164.413456838
 20
149.886593668
 30
0.0
 11
165.403406332
 21
150.876543162
 31
0.0
  0
LINE
  5
5D4
330
1F
100
AcDbEntity
  8
dim
100
AcDbLine
 10
165.443918371
 20
152.846395284
 30
0.0
 11
164.496395284
 21
153.793918371
 31
0.0
  0
LINE
  5
5D5
330
1F
100
AcDbEntity
  8
dim
100
AcDbLine
 10
161.550735804
 20
152.749314702
 30
0.0
 11
162.540685298
 21
153.739264196
 31
0.0
  0
LINE
  5
5D6
330
1F
100
AcDbEntity
  8
dim
100
AcDbLine
 10
161.609218714
 20
150.906741801
 30
0.0
 11
162.50126371
 21
151.798786797
 31
0.0
  0
LINE
  5
5D7
330
1F
100
AcDbEntity
  8
dim
100
AcDbLine
 10
161.550735804
 20
152.749314702
 30
0.0
 11
162.50126371
 21
151.798786797
 31
0.0
  0
LWPOLYLINE
  5
5D8
330
1F
100
AcDbEntity
  8
dim
100
AcDbPolyline
 90
        3
 70
     0
 43
0.0
 10
162.540685298
 20
153.739264196
 10
163.491213203
 20
152.78873629
 10
164.496395284
 20
153.793918371
  0
LINE
  5
5D9
330
1F
100
AcDbEntity
  8
dim
100
AcDbLine
 10
164.43873629
 20
151.841213203
 30
0.0
 11
165.443918371
 21
152.846395284
 31
0.0
  0
LINE
  5
5DA
330
1F
100
AcDbEntity
  8
dim
100
AcDbLine
 10
164.43873629
 20
151.841213203
 30
0.0
 11
165.403406332
 21
150.876543162
 31
0.0
  0
LINE
  5
5DB
330
1F
100
AcDbEntity
  8
dim
100
AcDbLine
 10
163.448786797
 20
150.85126371
 30
0.0
 11
164.413456838
 21
149.886593668
 31
0.0
  0
LINE
  5
5DC
330
1F
100
AcDbEntity
  8
dim
100
AcDbLine
 10
162.556741801
 20
149.959218714
 30
0.0
 11
163.448786797
 21
150.85126371
 31
0.0
  0
CIRCLE
  5
5DD
330
1F
100
AcDbEntity
  8
dim
100
AcDbCircle
 10
153.47
 20
165.32
 30
0.0
 40
2.900000000000006
  0
LINE
  5
5DE
330
1F
100
AcDbEntity
  8
dim
100
AcDbLine
 10
155.544827688
 20
164.235121806
 30
0.0
 11
155.544827688
 21
164.235121806
 31
0.0
  0
LINE
  5
5DF
330
1F
100
AcDbEntity
  8
dim
100
AcDbLine
 10
152.556741801
 20
163.459218714
 30
0.0
 11
151.609218714
 21
164.406741801
 31
0.0
  0
LINE
  5
5E0
330
1F
100
AcDbEntity
  8
dim
100
AcDbLine
 10
154.413456838
 20
163.386593668
 30
0.0
 11
155.403406332
 21
164.376543162
 31
0.0
  0
LINE
  5
5E1
330
1F
100
AcDbEntity
  8
dim
100
AcDbLine
 10
155.443918371
 20
166.346395284
 30
0.0
 11
154.496395284
 21
167.293918371
 31
0.0
  0
LINE
  5
5E2
330
1F
100
AcDbEntity
  8
dim
100
AcDbLine
 10
151.550735804
 20
166.249314702
 30
0.0
 11
152.540685298
 21
167.239264196
 31
0.0
  0
LINE
  5
5E3
330
1F
100
AcDbEntity
  8
dim
100
AcDbLine
 10
151.609218714
 20
164.406741801
 30
0.0
 11
152.50126371
 21
165.298786797
 31
0.0
  0
LINE
  5
5E4
330
1F
100
AcDbEntity
  8
dim
100
AcDbLine
 10
151.550735804
 20
166.249314702
 30
0.0
 11
152.50126371
 21
165.298786797
 31
0.0
  0
LWPOLYLINE
  5
5E5
330
1F
100
AcDbEntity
  8
dim
100
AcDbPolyline
 90
        3
 70
     0
 43
0.0
 10
152.540685298
 20
167.239264196
 10
153.491213203
 20
166.28873629
 10
154.496395284
 20
167.293918371
  0
LINE
  5
5E6
330
1F
100
AcDbEntity
  8
dim
100
AcDbLine
 10
154.43873629
 20
165.341213203
 30
0.0
 11
155.443918371
 21
166.346395284
 31
0.0
  0
LINE
  5
5E7
330
1F
100
AcDbEntity
  8
dim
100
AcDbLine
 10
154.43873629
 20
165.341213203
 30
0.0
 11
155.403406332
 21
164.376543162
 31
0.0
  0
LINE
  5
5E8
330
1F
100
AcDbEntity
  8
dim
100
AcDbLine
 10
153.448786797
 20
164.35126371
 30
0.0
 11
154.413456838
 21
163.386593668
 31
0.0
  0
LINE
  5
5E9
330
1F
100
AcDbEntity
  8
dim
100
AcDbLine
 10
152.556741801
 20
163.459218714
 30
0.0
 11
153.448786797
 21
164.35126371
 31
0.0
  0
CIRCLE
  5
5EA
330
1F
100
AcDbEntity
  8
dim
100
AcDbCircle
 10
153.47
 20
156.32
 30
0.0
 40
2.900000000000006
  0
LINE
  5
5EB
330
1F
100
AcDbEntity
  8
dim
100
AcDbLine
 10
155.544827688
 20
155.235121806
 30
0.0
 11
155.544827688
 21
155.235121806
 31
0.0
  0
LINE
  5
5EC
330
1F
100
AcDbEntity
  8
dim
100
AcDbLine
 10
152.556741801
 20
154.459218714
 30
0.0
 11
151.609218714
 21
155.406741801
 31
0.0
  0
LINE
  5
5ED
330
1F
100
AcDbEntity
  8
dim
100
AcDbLine
 10
154.413456838
 20
154.386593668
 30
0.0
 11
155.403406332
 21
155.376543162
 31
0.0
  0
LINE
  5
5EE
330
1F
100
AcDbEntity
  8
dim
100
AcDbLine
 10
155.443918371
 20
157.346395284
 30
0.0
 11
154.496395284
 21
158.293918371
 31
0.0
  0
LINE
  5
5EF
330
1F
100
AcDbEntity
  8
dim
100
AcDbLine
 10
151.550735804
 20
157.249314702
 30
0.0
 11
152.540685298
 21
158.239264196
 31
0.0
  0
LINE
  5
5F0
330
1F
100
AcDbEntity
  8
dim
100
AcDbLine
 10
151.609218714
 20
155.406741801
 30
0.0
 11
152.50126371
 21
156.298786797
 31
0.0
  0
LINE
  5
5F1
330
1F
100
AcDbEntity
  8
dim
100
AcDbLine
 10
151.550735804
 20
157.249314702
 30
0.0
 11
152.50126371
 21
156.298786797
 31
0.0
  0
LWPOLYLINE
  5
5F2
330
1F
100
AcDbEntity
  8
dim
100
AcDbPolyline
 90
        3
 70
     0
 43
0.0
 10
152.540685298
 20
158.239264196
 10
153.491213203
 20
157.28873629
 10
154.496395284
 20
158.293918371
  0
LINE
  5
5F3
330
1F
100
AcDbEntity
  8
dim
100
AcDbLine
 10
154.43873629
 20
156.341213203
 30
0.0
 11
155.443918371
 21
157.346395284
 31
0.0
  0
LINE
  5
5F4
330
1F
100
AcDbEntity
  8
dim
100
AcDbLine
 10
154.43873629
 20
156.341213203
 30
0.0
 11
155.403406332
 21
155.376543162
 31
0.0
  0
LINE
  5
5F5
330
1F
100
AcDbEntity
  8
dim
100
AcDbLine
 10
153.448786797
 20
155.35126371
 30
0.0
 11
154.413456838
 21
154.386593668
 31
0.0
  0
LINE
  5
5F6
330
1F
100
AcDbEntity
  8
dim
100
AcDbLine
 10
152.556741801
 20
154.459218714
 30
0.0
 11
153.448786797
 21
155.35126371
 31
0.0
  0
CIRCLE
  5
5F7
330
1F
100
AcDbEntity
  8
dim
100
AcDbCircle
 10
80.47
 20
160.82
 30
0.0
 40
2.900000000000006
  0
LINE
  5
5F8
330
1F
100
AcDbEntity
  8
dim
100
AcDbLine
 10
78.395172312
 20
159.735121806
 30
0.0
 11
78.395172312
 21
159.735121806
 31
0.0
  0
LINE
  5
5F9
330
1F
100
AcDbEntity
  8
dim
100
AcDbLine
 10
81.383258199
 20
158.959218714
 30
0.0
 11
82.33078128599999
 21
159.906741801
 31
0.0
  0
LINE
  5
5FA
330
1F
100
AcDbEntity
  8
dim
100
AcDbLine
 10
79.526543162
 20
158.886593668
 30
0.0
 11
78.536593668
 21
159.876543162
 31
0.0
  0
LINE
  5
5FB
330
1F
100
AcDbEntity
  8
dim
100
AcDbLine
 10
78.496081629
 20
161.846395284
 30
0.0
 11
79.443604716
 21
162.793918371
 31
0.0
  0
LINE
  5
5FC
330
1F
100
AcDbEntity
  8
dim
100
AcDbLine
 10
82.389264196
 20
161.749314702
 30
0.0
 11
81.399314702
 21
162.739264196
 31
0.0
  0
LINE
  5
5FD
330
1F
100
AcDbEntity
  8
dim
100
AcDbLine
 10
82.33078128599999
 20
159.906741801
 30
0.0
 11
81.43873629
 21
160.798786797
 31
0.0
  0
LINE
  5
5FE
330
1F
100
AcDbEntity
  8
dim
100
AcDbLine
 10
82.389264196
 20
161.749314702
 30
0.0
 11
81.43873629
 21
160.798786797
 31
0.0
  0
LWPOLYLINE
  5
5FF
330
1F
100
AcDbEntity
  8
dim
100
AcDbPolyline
 90
        3
 70
     0
 43
0.0
 10
81.399314702
 20
162.739264196
 10
80.448786797
 20
161.78873629
 10
79.443604716
 20
162.793918371
  0
LINE
  5
600
330
1F
100
AcDbEntity
  8
dim
100
AcDbLine
 10
79.50126371
 20
160.841213203
 30
0.0
 11
78.496081629
 21
161.846395284
 31
0.0
  0
LINE
  5
601
330
1F
100
AcDbEntity
  8
dim
100
AcDbLine
 10
79.50126371
 20
160.841213203
 30
0.0
 11
78.536593668
 21
159.876543162
 31
0.0
  0
LINE
  5
602
330
1F
100
AcDbEntity
  8
dim
100
AcDbLine
 10
80.491213203
 20
159.85126371
 30
0.0
 11
79.526543162
 21
158.886593668
 31
0.0
  0
LINE
  5
603
330
1F
100
AcDbEntity
  8
dim
100
AcDbLine
 10
81.383258199
 20
158.959218714
 30
0.0
 11
80.491213203
 21
159.85126371
 31
0.0
  0
CIRCLE
  5
604
330
1F
100
AcDbEntity
  8
dim
100
AcDbCircle
 10
90.47
 20
165.32
 30
0.0
 40
2.900000000000006
  0
LINE
  5
605
330
1F
100
AcDbEntity
  8
dim
100
AcDbLine
 10
88.395172312
 20
164.235121806
 30
0.0
 11
88.395172312
 21
164.235121806
 31
0.0
  0
LINE
  5
606
330
1F
100
AcDbEntity
  8
dim
100
AcDbLine
 10
91.38325819900001
 20
163.459218714
 30
0.0
 11
92.33078128599999
 21
164.406741801
 31
0.0
  0
LINE
  5
607
330
1F
100
AcDbEntity
  8
dim
100
AcDbLine
 10
89.526543162
 20
163.386593668
 30
0.0
 11
88.536593668
 21
164.376543162
 31
0.0
  0
LINE
  5
608
330
1F
100
AcDbEntity
  8
dim
100
AcDbLine
 10
88.496081629
 20
166.346395284
 30
0.0
 11
89.44360471600001
 21
167.293918371
 31
0.0
  0
LINE
  5
609
330
1F
100
AcDbEntity
  8
dim
100
AcDbLine
 10
92.389264196
 20
166.249314702
 30
0.0
 11
91.399314702
 21
167.239264196
 31
0.0
  0
LINE
  5
60A
330
1F
100
AcDbEntity
  8
dim
100
AcDbLine
 10
92.33078128599999
 20
164.406741801
 30
0.0
 11
91.43873629000001
 21
165.298786797
 31
0.0
  0
LINE
  5
60B
330
1F
100
AcDbEntity
  8
dim
100
AcDbLine
 10
92.389264196
 20
166.249314702
 30
0.0
 11
91.43873629000001
 21
165.298786797
 31
0.0
  0
LWPOLYLINE
  5
60C
330
1F
100
AcDbEntity
  8
dim
100
AcDbPolyline
 90
        3
 70
     0
 43
0.0
 10
91.399314702
 20
167.239264196
 10
90.448786797
 20
166.28873629
 10
89.44360471600001
 20
167.293918371
  0
LINE
  5
60D
330
1F
100
AcDbEntity
  8
dim
100
AcDbLine
 10
89.50126370999999
 20
165.341213203
 30
0.0
 11
88.496081629
 21
166.346395284
 31
0.0
  0
LINE
  5
60E
330
1F
100
AcDbEntity
  8
dim
100
AcDbLine
 10
89.50126370999999
 20
165.341213203
 30
0.0
 11
88.536593668
 21
164.376543162
 31
0.0
  0
LINE
  5
60F
330
1F
100
AcDbEntity
  8
dim
100
AcDbLine
 10
90.491213203
 20
164.35126371
 30
0.0
 11
89.526543162
 21
163.386593668
 31
0.0
  0
LINE
  5
610
330
1F
100
AcDbEntity
  8
dim
100
AcDbLine
 10
91.38325819900001
 20
163.459218714
 30
0.0
 11
90.491213203
 21
164.35126371
 31
0.0
  0
CIRCLE
  5
611
330
1F
100
AcDbEntity
  8
dim
100
AcDbCircle
 10
80.47
 20
151.82
 30
0.0
 40
2.900000000000006
  0
LINE
  5
612
330
1F
100
AcDbEntity
  8
dim
100
AcDbLine
 10
78.395172312
 20
150.735121806
 30
0.0
 11
78.395172312
 21
150.735121806
 31
0.0
  0
LINE
  5
613
330
1F
100
AcDbEntity
  8
dim
100
AcDbLine
 10
81.383258199
 20
149.959218714
 30
0.0
 11
82.33078128599999
 21
150.906741801
 31
0.0
  0
LINE
  5
614
330
1F
100
AcDbEntity
  8
dim
100
AcDbLine
 10
79.526543162
 20
149.886593668
 30
0.0
 11
78.536593668
 21
150.876543162
 31
0.0
  0
LINE
  5
615
330
1F
100
AcDbEntity
  8
dim
100
AcDbLine
 10
78.496081629
 20
152.846395284
 30
0.0
 11
79.443604716
 21
153.793918371
 31
0.0
  0
LINE
  5
616
330
1F
100
AcDbEntity
  8
dim
100
AcDbLine
 10
82.389264196
 20
152.749314702
 30
0.0
 11
81.399314702
 21
153.739264196
 31
0.0
  0
LINE
  5
617
330
1F
100
AcDbEntity
  8
dim
100
AcDbLine
 10
82.33078128599999
 20
150.906741801
 30
0.0
 11
81.43873629
 21
151.798786797
 31
0.0
  0
LINE
  5
618
330
1F
100
AcDbEntity
  8
dim
100
AcDbLine
 10
82.389264196
 20
152.749314702
 30
0.0
 11
81.43873629
 21
151.798786797
 31
0.0
  0
LWPOLYLINE
  5
619
330
1F
100
AcDbEntity
  8
dim
100
AcDbPolyline
 90
        3
 70
     0
 43
0.0
 10
81.399314702
 20
153.739264196
 10
80.448786797
 20
152.78873629
 10
79.443604716
 20
153.793918371
  0
LINE
  5
61A
330
1F
100
AcDbEntity
  8
dim
100
AcDbLine
 10
79.50126371
 20
151.841213203
 30
0.0
 11
78.496081629
 21
152.846395284
 31
0.0
  0
LINE
  5
61B
330
1F
100
AcDbEntity
  8
dim
100
AcDbLine
 10
79.50126371
 20
151.841213203
 30
0.0
 11
78.536593668
 21
150.876543162
 31
0.0
  0
LINE
  5
61C
330
1F
100
AcDbEntity
  8
dim
100
AcDbLine
 10
80.491213203
 20
150.85126371
 30
0.0
 11
79.526543162
 21
149.886593668
 31
0.0
  0
LINE
  5
61D
330
1F
100
AcDbEntity
  8
dim
100
AcDbLine
 10
81.383258199
 20
149.959218714
 30
0.0
 11
80.491213203
 21
150.85126371
 31
0.0
  0
CIRCLE
  5
61E
330
1F
100
AcDbEntity
  8
dim
100
AcDbCircle
 10
90.47
 20
156.32
 30
0.0
 40
2.900000000000006
  0
LINE
  5
61F
330
1F
100
AcDbEntity
  8
dim
100
AcDbLine
 10
88.395172312
 20
155.235121806
 30
0.0
 11
88.395172312
 21
155.235121806
 31
0.0
  0
LINE
  5
620
330
1F
100
AcDbEntity
  8
dim
100
AcDbLine
 10
91.38325819900001
 20
154.459218714
 30
0.0
 11
92.33078128599999
 21
155.406741801
 31
0.0
  0
LINE
  5
621
330
1F
100
AcDbEntity
  8
dim
100
AcDbLine
 10
89.526543162
 20
154.386593668
 30
0.0
 11
88.536593668
 21
155.376543162
 31
0.0
  0
LINE
  5
622
330
1F
100
AcDbEntity
  8
dim
100
AcDbLine
 10
88.496081629
 20
157.346395284
 30
0.0
 11
89.44360471600001
 21
158.293918371
 31
0.0
  0
LINE
  5
623
330
1F
100
AcDbEntity
  8
dim
100
AcDbLine
 10
92.389264196
 20
157.249314702
 30
0.0
 11
91.399314702
 21
158.239264196
 31
0.0
  0
LINE
  5
624
330
1F
100
AcDbEntity
  8
dim
100
AcDbLine
 10
92.33078128599999
 20
155.406741801
 30
0.0
 11
91.43873629000001
 21
156.298786797
 31
0.0
  0
LINE
  5
625
330
1F
100
AcDbEntity
  8
dim
100
AcDbLine
 10
92.389264196
 20
157.249314702
 30
0.0
 11
91.43873629000001
 21
156.298786797
 31
0.0
  0
LWPOLYLINE
  5
626
330
1F
100
AcDbEntity
  8
dim
100
AcDbPolyline
 90
        3
 70
     0
 43
0.0
 10
91.399314702
 20
158.239264196
 10
90.448786797
 20
157.28873629
 10
89.44360471600001
 20
158.293918371
  0
LINE
  5
627
330
1F
100
AcDbEntity
  8
dim
100
AcDbLine
 10
89.50126370999999
 20
156.341213203
 30
0.0
 11
88.496081629
 21
157.346395284
 31
0.0
  0
LINE
  5
628
330
1F
100
AcDbEntity
  8
dim
100
AcDbLine
 10
89.50126370999999
 20
156.341213203
 30
0.0
 11
88.536593668
 21
155.376543162
 31
0.0
  0
LINE
  5
629
330
1F
100
AcDbEntity
  8
dim
100
AcDbLine
 10
90.491213203
 20
155.35126371
 30
0.0
 11
89.526543162
 21
154.386593668
 31
0.0
  0
LINE
  5
62A
330
1F
100
AcDbEntity
  8
dim
100
AcDbLine
 10
91.38325819900001
 20
154.459218714
 30
0.0
 11
90.491213203
 21
155.35126371
 31
0.0
  0
LINE
  5
62B
330
1F
100
AcDbEntity
  8
dim
100
AcDbLine
 10
296.87
 20
16.35000000000001
 30
0.0
 11
271.5700000000001
 21
16.35000000000001
 31
0.0
  0
LINE
  5
62C
330
1F
100
AcDbEntity
  8
dim
100
AcDbLine
 10
209.64
 20
152.67
 30
0.0
 11
209.64
 21
149.32
 31
0.0
  0
LINE
  5
62D
330
1F
100
AcDbEntity
  8
dim
100
AcDbLine
 10
216.14
 20
161.67
 30
0.0
 11
208.14
 21
161.67
 31
0.0
  0
LINE
  5
62E
330
1F
100
AcDbEntity
  8
dim
100
AcDbLine
 10
208.14
 20
159.97
 30
0.0
 11
216.14
 21
159.97
 31
0.0
  0
LINE
  5
62F
330
1F
100
AcDbEntity
  8
dim
100
AcDbLine
 10
208.64
 20
161.67
 30
0.0
 11
208.64
 21
167.82
 31
0.0
  0
LINE
  5
630
330
1F
100
AcDbEntity
  8
dim
100
AcDbLine
 10
208.64
 20
149.32
 30
0.0
 11
208.64
 21
159.97
 31
0.0
  0
LINE
  5
631
330
1F
100
AcDbEntity
  8
dim
100
AcDbLine
 10
35.8
 20
161.67
 30
0.0
 11
27.8
 21
161.67
 31
0.0
  0
LINE
  5
632
330
1F
100
AcDbEntity
  8
dim
100
AcDbLine
 10
27.8
 20
159.97
 30
0.0
 11
35.8
 21
159.97
 31
0.0
  0
LINE
  5
633
330
1F
100
AcDbEntity
  8
dim
100
AcDbLine
 10
35.3
 20
161.67
 30
0.0
 11
35.3
 21
167.82
 31
0.0
  0
LINE
  5
634
330
1F
100
AcDbEntity
  8
dim
100
AcDbLine
 10
35.3
 20
149.32
 30
0.0
 11
35.3
 21
159.97
 31
0.0
  0
LINE
  5
635
330
1F
100
AcDbEntity
  8
dim
100
AcDbLine
 10
94.97
 20
169.47
 30
0.0
 11
94.97
 21
176.97
 31
0.0
  0
LINE
  5
636
330
1F
100
AcDbEntity
  8
dim
100
AcDbLine
 10
94.97
 20
175.97
 30
0.0
 11
96.70866648699999
 21
175.504125719
 31
0.0
  0
LINE
  5
637
330
1F
100
AcDbEntity
  8
dim
100
AcDbLine
 10
94.97
 20
175.97
 30
0.0
 11
96.70866648699999
 21
176.435874281
 31
0.0
  0
LINE
  5
638
330
1F
100
AcDbEntity
  8
dim
100
AcDbLine
 10
90.47
 20
169.02
 30
0.0
 11
90.47
 21
181.72
 31
0.0
  0
LINE
  5
639
330
1F
100
AcDbEntity
  8
dim
100
AcDbLine
 10
90.47
 20
180.72
 30
0.0
 11
92.20866648699999
 21
180.254125719
 31
0.0
  0
LINE
  5
63A
330
1F
100
AcDbEntity
  8
dim
100
AcDbLine
 10
90.47
 20
180.72
 30
0.0
 11
92.20866648699999
 21
181.185874281
 31
0.0
  0
LINE
  5
63B
330
1F
100
AcDbEntity
  8
dim
100
AcDbLine
 10
80.47
 20
186.02
 30
0.0
 11
82.20866648699999
 21
185.554125719
 31
0.0
  0
LINE
  5
63C
330
1F
100
AcDbEntity
  8
dim
100
AcDbLine
 10
80.47
 20
186.02
 30
0.0
 11
82.20866648699999
 21
186.485874281
 31
0.0
  0
LINE
  5
63D
330
1F
100
AcDbEntity
  8
dim
100
AcDbLine
 10
80.47
 20
171.97
 30
0.0
 11
80.47
 21
187.02
 31
0.0
  0
LINE
  5
63E
330
1F
100
AcDbEntity
  8
dim
100
AcDbLine
 10
74.97
 20
171.570002697
 30
0.0
 11
74.97
 21
198.0
 31
0.0
  0
LINE
  5
63F
330
1F
100
AcDbEntity
  8
dim
100
AcDbLine
 10
74.97
 20
196.0
 30
0.0
 11
76.418888739
 21
195.611771432
 31
0.0
  0
LINE
  5
640
330
1F
100
AcDbEntity
  8
dim
100
AcDbLine
 10
74.97
 20
196.0
 30
0.0
 11
76.418888739
 21
196.388228568
 31
0.0
  0
LINE
  5
641
330
1F
100
AcDbEntity
  8
dim
100
AcDbLine
 10
148.97
 20
175.97
 30
0.0
 11
147.231333513
 21
176.435874281
 31
0.0
  0
LINE
  5
642
330
1F
100
AcDbEntity
  8
dim
100
AcDbLine
 10
148.97
 20
175.97
 30
0.0
 11
147.231333513
 21
175.504125719
 31
0.0
  0
LINE
  5
643
330
1F
100
AcDbEntity
  8
dim
100
AcDbLine
 10
148.97
 20
169.47
 30
0.0
 11
148.97
 21
176.97
 31
0.0
  0
LINE
  5
644
330
1F
100
AcDbEntity
  8
dim
100
AcDbLine
 10
153.47
 20
180.72
 30
0.0
 11
151.731333513
 21
181.185874281
 31
0.0
  0
LINE
  5
645
330
1F
100
AcDbEntity
  8
dim
100
AcDbLine
 10
153.47
 20
180.72
 30
0.0
 11
151.731333513
 21
180.254125719
 31
0.0
  0
LINE
  5
646
330
1F
100
AcDbEntity
  8
dim
100
AcDbLine
 10
153.47
 20
169.02
 30
0.0
 11
153.47
 21
181.72
 31
0.0
  0
LINE
  5
647
330
1F
100
AcDbEntity
  8
dim
100
AcDbLine
 10
163.47
 20
186.02
 30
0.0
 11
161.731333513
 21
186.485874281
 31
0.0
  0
LINE
  5
648
330
1F
100
AcDbEntity
  8
dim
100
AcDbLine
 10
163.47
 20
186.02
 30
0.0
 11
161.731333513
 21
185.554125719
 31
0.0
  0
LINE
  5
649
330
1F
100
AcDbEntity
  8
dim
100
AcDbLine
 10
163.47
 20
172.62
 30
0.0
 11
163.47
 21
187.02
 31
0.0
  0
LINE
  5
64A
330
1F
100
AcDbEntity
  8
dim
100
AcDbLine
 10
173.07
 20
196.0
 30
0.0
 11
171.621111261
 21
196.388228568
 31
0.0
  0
LINE
  5
64B
330
1F
100
AcDbEntity
  8
dim
100
AcDbLine
 10
173.07
 20
196.0
 30
0.0
 11
171.621111261
 21
195.611771432
 31
0.0
  0
LINE
  5
64C
330
1F
100
AcDbEntity
  8
dim
100
AcDbLine
 10
173.07
 20
164.27
 30
0.0
 11
173.07
 21
198.0
 31
0.0
  0
LINE
  5
64D
330
1F
100
AcDbEntity
  8
dim
100
AcDbLine
 10
185.77
 20
165.32
 30
0.0
 11
185.304125719
 21
163.581333513
 31
0.0
  0
LINE
  5
64E
330
1F
100
AcDbEntity
  8
dim
100
AcDbLine
 10
185.77
 20
165.32
 30
0.0
 11
186.235874281
 21
163.581333513
 31
0.0
  0
LINE
  5
64F
330
1F
100
AcDbEntity
  8
dim
100
AcDbLine
 10
185.77
 20
165.32
 30
0.0
 11
185.77
 21
156.32
 31
0.0
  0
LINE
  5
650
330
1F
100
AcDbEntity
  8
dim
100
AcDbLine
 10
185.77
 20
156.32
 30
0.0
 11
186.235874281
 21
158.058666487
 31
0.0
  0
LINE
  5
651
330
1F
100
AcDbEntity
  8
dim
100
AcDbLine
 10
185.77
 20
156.32
 30
0.0
 11
185.304125719
 21
158.058666487
 31
0.0
  0
LINE
  5
652
330
1F
100
AcDbEntity
  8
dim
100
AcDbLine
 10
168.97
 20
171.07
 30
0.0
 11
190.97
 21
171.07
 31
0.0
  0
LINE
  5
653
330
1F
100
AcDbEntity
  8
dim
100
AcDbLine
 10
189.97
 20
171.07
 30
0.0
 11
189.504125719
 21
169.331333513
 31
0.0
  0
LINE
  5
654
330
1F
100
AcDbEntity
  8
dim
100
AcDbLine
 10
189.97
 20
171.07
 30
0.0
 11
190.435874281
 21
169.331333513
 31
0.0
  0
LINE
  5
655
330
1F
100
AcDbEntity
  8
dim
100
AcDbLine
 10
189.97
 20
171.07
 30
0.0
 11
189.97
 21
146.07
 31
0.0
  0
LINE
  5
656
330
1F
100
AcDbEntity
  8
dim
100
AcDbLine
 10
189.97
 20
146.07
 30
0.0
 11
189.504125719
 21
147.808666487
 31
0.0
  0
LINE
  5
657
330
1F
100
AcDbEntity
  8
dim
100
AcDbLine
 10
168.97
 20
146.07
 30
0.0
 11
190.97
 21
146.07
 31
0.0
  0
LINE
  5
658
330
1F
100
AcDbEntity
  8
dim
100
AcDbLine
 10
225.14
 20
164.97
 30
0.0
 11
225.14
 21
177.72
 31
0.0
  0
LINE
  5
659
330
1F
100
AcDbEntity
  8
dim
100
AcDbLine
 10
225.14
 20
176.72
 30
0.0
 11
226.878666487
 21
176.254125719
 31
0.0
  0
LINE
  5
65A
330
1F
100
AcDbEntity
  8
dim
100
AcDbLine
 10
225.14
 20
176.72
 30
0.0
 11
226.878666487
 21
177.185874281
 31
0.0
  0
LINE
  5
65B
330
1F
100
AcDbEntity
  8
dim
100
AcDbLine
 10
225.14
 20
176.72
 30
0.0
 11
243.94
 21
176.72
 31
0.0
  0
LINE
  5
65C
330
1F
100
AcDbEntity
  8
dim
100
AcDbLine
 10
243.94
 20
176.72
 30
0.0
 11
242.201333513
 21
177.185874281
 31
0.0
  0
LINE
  5
65D
330
1F
100
AcDbEntity
  8
dim
100
AcDbLine
 10
243.94
 20
176.72
 30
0.0
 11
242.201333513
 21
176.254125719
 31
0.0
  0
LINE
  5
65E
330
1F
100
AcDbEntity
  8
dim
100
AcDbLine
 10
243.94
 20
171.57
 30
0.0
 11
243.94
 21
177.72
 31
0.0
  0
LINE
  5
65F
330
1F
100
AcDbEntity
  8
dim
100
AcDbLine
 10
218.64
 20
171.57
 30
0.0
 11
218.64
 21
177.72
 31
0.0
  0
LINE
  5
660
330
1F
100
AcDbEntity
  8
dim
100
AcDbLine
 10
218.64
 20
176.72
 30
0.0
 11
220.378666487
 21
176.254125719
 31
0.0
  0
LINE
  5
661
330
1F
100
AcDbEntity
  8
dim
100
AcDbLine
 10
218.64
 20
176.72
 30
0.0
 11
220.378666487
 21
177.185874281
 31
0.0
  0
LINE
  5
662
330
1F
100
AcDbEntity
  8
dim
100
AcDbLine
 10
218.64
 20
176.72
 30
0.0
 11
225.14
 21
176.72
 31
0.0
  0
LINE
  5
663
330
1F
100
AcDbEntity
  8
dim
100
AcDbLine
 10
225.14
 20
176.72
 30
0.0
 11
223.401333513
 21
177.185874281
 31
0.0
  0
LINE
  5
664
330
1F
100
AcDbEntity
  8
dim
100
AcDbLine
 10
225.14
 20
176.72
 30
0.0
 11
223.401333513
 21
176.254125719
 31
0.0
  0
LINE
  5
665
330
1F
100
AcDbEntity
  8
dim
100
AcDbLine
 10
216.14
 20
169.57
 30
0.0
 11
216.14
 21
184.27
 31
0.0
  0
LINE
  5
666
330
1F
100
AcDbEntity
  8
dim
100
AcDbLine
 10
216.14
 20
183.27
 30
0.0
 11
217.878666487
 21
182.804125719
 31
0.0
  0
LINE
  5
667
330
1F
100
AcDbEntity
  8
dim
100
AcDbLine
 10
216.14
 20
183.27
 30
0.0
 11
217.878666487
 21
183.735874281
 31
0.0
  0
LINE
  5
668
330
1F
100
AcDbEntity
  8
dim
100
AcDbLine
 10
216.14
 20
183.27
 30
0.0
 11
243.94
 21
183.27
 31
0.0
  0
LINE
  5
669
330
1F
100
AcDbEntity
  8
dim
100
AcDbLine
 10
243.94
 20
183.27
 30
0.0
 11
242.201333513
 21
183.735874281
 31
0.0
  0
LINE
  5
66A
330
1F
100
AcDbEntity
  8
dim
100
AcDbLine
 10
243.94
 20
183.27
 30
0.0
 11
242.201333513
 21
182.804125719
 31
0.0
  0
LINE
  5
66B
330
1F
100
AcDbEntity
  8
dim
100
AcDbLine
 10
243.94
 20
178.22
 30
0.0
 11
243.94
 21
184.27
 31
0.0
  0
LINE
  5
66C
330
1F
100
AcDbEntity
  8
dim
100
AcDbLine
 10
203.14
 20
170.57
 30
0.0
 11
203.14
 21
190.72
 31
0.0
  0
LINE
  5
66D
330
1F
100
AcDbEntity
  8
dim
100
AcDbLine
 10
203.14
 20
189.72
 30
0.0
 11
204.878666487
 21
189.254125719
 31
0.0
  0
LINE
  5
66E
330
1F
100
AcDbEntity
  8
dim
100
AcDbLine
 10
203.14
 20
189.72
 30
0.0
 11
204.878666487
 21
190.185874281
 31
0.0
  0
LINE
  5
66F
330
1F
100
AcDbEntity
  8
dim
100
AcDbLine
 10
203.14
 20
189.72
 30
0.0
 11
243.94
 21
189.72
 31
0.0
  0
LINE
  5
670
330
1F
100
AcDbEntity
  8
dim
100
AcDbLine
 10
243.94
 20
189.72
 30
0.0
 11
242.201333513
 21
190.185874281
 31
0.0
  0
LINE
  5
671
330
1F
100
AcDbEntity
  8
dim
100
AcDbLine
 10
243.94
 20
189.72
 30
0.0
 11
242.201333513
 21
189.254125719
 31
0.0
  0
LINE
  5
672
330
1F
100
AcDbEntity
  8
dim
100
AcDbLine
 10
243.94
 20
183.77
 30
0.0
 11
243.94
 21
190.72
 31
0.0
  0
LINE
  5
673
330
1F
100
AcDbEntity
  8
dim
100
AcDbLine
 10
179.92
 20
73.302250994
 30
0.0
 11
180.385874281
 21
75.04091748100002
 31
0.0
  0
LINE
  5
674
330
1F
100
AcDbEntity
  8
dim
100
AcDbLine
 10
179.92
 20
73.302250994
 30
0.0
 11
179.454125719
 21
75.04091748100002
 31
0.0
  0
LINE
  5
675
330
1F
100
AcDbEntity
  8
dim
100
AcDbLine
 10
169.47
 20
73.302250994
 30
0.0
 11
180.92
 21
73.302250994
 31
0.0
  0
LINE
  5
676
330
1F
100
AcDbEntity
  8
dim
100
AcDbLine
 10
179.92
 20
114.102250994
 30
0.0
 11
179.454125719
 21
112.363584507
 31
0.0
  0
LINE
  5
677
330
1F
100
AcDbEntity
  8
dim
100
AcDbLine
 10
179.92
 20
114.102250994
 30
0.0
 11
180.385874281
 21
112.363584507
 31
0.0
  0
LINE
  5
678
330
1F
100
AcDbEntity
  8
dim
100
AcDbLine
 10
148.77763314
 20
114.102250994
 30
0.0
 11
180.92
 21
114.102250994
 31
0.0
  0
LINE
  5
679
330
1F
100
AcDbEntity
  8
dim
100
AcDbLine
 10
179.92
 20
73.302250994
 30
0.0
 11
179.92
 21
114.102250994
 31
0.0
  0
LINE
  5
67A
330
1F
100
AcDbEntity
  8
dim
100
AcDbLine
 10
121.97
 20
191.47
 30
0.0
 11
121.97
 21
189.37
 31
0.0
  0
LINE
  5
67B
330
1F
100
AcDbEntity
  8
dim
100
AcDbLine
 10
121.97
 20
186.97
 30
0.0
 11
121.97
 21
183.97
 31
0.0
  0
LINE
  5
67C
330
1F
100
AcDbEntity
  8
dim
100
AcDbLine
 10
121.97
 20
181.37
 30
0.0
 11
121.97
 21
179.37
 31
0.0
  0
LINE
  5
67D
330
1F
100
AcDbEntity
  8
dim
100
AcDbLine
 10
94.97
 20
175.97
 30
0.0
 11
148.97
 21
175.97
 31
0.0
  0
LINE
  5
67E
330
1F
100
AcDbEntity
  8
dim
100
AcDbLine
 10
90.47
 20
180.72
 30
0.0
 11
153.47
 21
180.72
 31
0.0
  0
LINE
  5
67F
330
1F
100
AcDbEntity
  8
dim
100
AcDbLine
 10
80.47
 20
186.02
 30
0.0
 11
163.47
 21
186.02
 31
0.0
  0
LINE
  5
680
330
1F
100
AcDbEntity
  8
dim
100
AcDbLine
 10
74.97
 20
196.0
 30
0.0
 11
173.07
 21
196.0
 31
0.0
  0
LINE
  5
681
330
1F
100
AcDbEntity
  8
dim
100
AcDbLine
 10
139.57
 20
158.57
 30
0.0
 11
120.97
 21
158.57
 31
0.0
  0
LINE
  5
682
330
1F
100
AcDbEntity
  8
dim
100
AcDbLine
 10
106.37
 20
158.57
 30
0.0
 11
78.14
 21
158.57
 31
0.0
  0
LINE
  5
683
330
1F
100
AcDbEntity
  8
dim
100
AcDbLine
 10
116.12
 20
158.57
 30
0.0
 11
115.52
 21
158.57
 31
0.0
  0
LINE
  5
684
330
1F
100
AcDbEntity
  8
dim
100
AcDbLine
 10
115.02
 20
158.57
 30
0.0
 11
78.95
 21
158.57
 31
0.0
  0
LINE
  5
685
330
1F
100
AcDbEntity
  8
dim
100
AcDbLine
 10
115.02
 20
158.57
 30
0.0
 11
109.13
 21
158.57
 31
0.0
  0
LINE
  5
686
330
1F
100
AcDbEntity
  8
dim
100
AcDbLine
 10
70.97
 20
26.65000000000002
 30
0.0
 11
187.67
 21
26.65000000000002
 31
0.0
  0
LINE
  5
687
330
1F
100
AcDbEntity
  8
dim
100
AcDbLine
 10
121.97
 20
12.32000000000001
 30
0.0
 11
121.97
 21
43.45000000000002
 31
0.0
  0
LINE
  5
688
330
1F
100
AcDbEntity
  8
dim
100
AcDbLine
 10
189.97
 20
146.07
 30
0.0
 11
190.435874281
 21
147.808666487
 31
0.0
  0
LINE
  5
689
330
1F
100
AcDbEntity
  8
dim
100
AcDbLine
 10
230.02
 20
158.57
 30
0.0
 11
245.62
 21
158.57
 31
0.0
  0
LINE
  5
68A
330
1F
100
AcDbEntity
  8
dim
100
AcDbLine
 10
238.94
 20
164.32
 30
0.0
 11
233.340004988
 21
164.32
 31
0.0
  0
LINE
  5
68B
330
1F
100
AcDbEntity
  8
dim
100
AcDbLine
 10
234.340004988
 20
164.32
 30
0.0
 11
233.874130707
 21
162.581333513
 31
0.0
  0
LINE
  5
68C
330
1F
100
AcDbEntity
  8
dim
100
AcDbLine
 10
234.340004988
 20
164.32
 30
0.0
 11
234.805879269
 21
162.581333513
 31
0.0
  0
LINE
  5
68D
330
1F
100
AcDbEntity
  8
dim
100
AcDbLine
 10
234.340004988
 20
164.32
 30
0.0
 11
234.340004988
 21
152.82
 31
0.0
  0
LINE
  5
68E
330
1F
100
AcDbEntity
  8
dim
100
AcDbLine
 10
234.340004988
 20
152.82
 30
0.0
 11
234.805879269
 21
154.558666487
 31
0.0
  0
LINE
  5
68F
330
1F
100
AcDbEntity
  8
dim
100
AcDbLine
 10
234.340004988
 20
152.82
 30
0.0
 11
233.874130707
 21
154.558666487
 31
0.0
  0
LINE
  5
690
330
1F
100
AcDbEntity
  8
dim
100
AcDbLine
 10
238.94
 20
152.82
 30
0.0
 11
233.340004988
 21
152.82
 31
0.0
  0
LINE
  5
691
330
1F
100
AcDbEntity
  8
dim
100
AcDbLine
 10
206.64
 20
158.57
 30
0.0
 11
245.62
 21
158.57
 31
0.0
  0
LINE
  5
692
330
1F
100
AcDbEntity
  8
dim
100
AcDbLine
 10
200.02
 20
158.57
 30
0.0
 11
201.19
 21
158.57
 31
0.0
  0
LINE
  5
693
330
1F
100
AcDbEntity
  8
dim
100
AcDbLine
 10
199.95
 20
158.57
 30
0.0
 11
200.02
 21
158.57
 31
0.0
  0
LINE
  5
694
330
1F
100
AcDbEntity
  8
dim
100
AcDbLine
 10
196.72
 20
158.57
 30
0.0
 11
200.274125719
 21
158.57
 31
0.0
  0
LINE
  5
695
330
1F
100
AcDbEntity
  8
dim
100
AcDbLine
 10
167.47
 20
160.82
 30
0.0
 11
181.62
 21
160.82
 31
0.0
  0
LINE
  5
696
330
1F
100
AcDbEntity
  8
dim
100
AcDbLine
 10
180.62
 20
160.82
 30
0.0
 11
180.154125719
 21
159.081333513
 31
0.0
  0
LINE
  5
697
330
1F
100
AcDbEntity
  8
dim
100
AcDbLine
 10
180.62
 20
160.82
 30
0.0
 11
181.085874281
 21
159.081333513
 31
0.0
  0
LINE
  5
698
330
1F
100
AcDbEntity
  8
dim
100
AcDbLine
 10
180.62
 20
160.82
 30
0.0
 11
180.62
 21
151.82
 31
0.0
  0
LINE
  5
699
330
1F
100
AcDbEntity
  8
dim
100
AcDbLine
 10
180.62
 20
151.82
 30
0.0
 11
181.085874281
 21
153.558666487
 31
0.0
  0
LINE
  5
69A
330
1F
100
AcDbEntity
  8
dim
100
AcDbLine
 10
180.62
 20
151.82
 30
0.0
 11
180.154125719
 21
153.558666487
 31
0.0
  0
LINE
  5
69B
330
1F
100
AcDbEntity
  8
dim
100
AcDbLine
 10
167.47
 20
151.82
 30
0.0
 11
181.62
 21
151.82
 31
0.0
  0
LINE
  5
69C
330
1F
100
AcDbEntity
  8
dim
100
AcDbLine
 10
157.47
 20
156.32
 30
0.0
 11
176.77
 21
156.32
 31
0.0
  0
LINE
  5
69D
330
1F
100
AcDbEntity
  8
dim
100
AcDbLine
 10
157.47
 20
165.32
 30
0.0
 11
186.77
 21
165.32
 31
0.0
  0
LINE
  5
69E
330
1F
100
AcDbEntity
  8
dim
100
AcDbLine
 10
179.87
 20
156.32
 30
0.0
 11
186.77
 21
156.32
 31
0.0
  0
LINE
  5
69F
330
1F
100
AcDbEntity
  8
dim
100
AcDbLine
 10
182.22
 20
158.57
 30
0.0
 11
120.97
 21
158.57
 31
0.0
  0
LINE
  5
6A0
330
1F
100
AcDbEntity
  8
dim
100
AcDbLine
 10
148.97
 20
146.57
 30
0.0
 11
148.97
 21
138.739264196
 31
0.0
  0
LINE
  5
6A1
330
1F
100
AcDbEntity
  8
dim
100
AcDbLine
 10
148.97
 20
139.739264196
 30
0.0
 11
150.708666487
 21
139.273389915
 31
0.0
  0
LINE
  5
6A2
330
1F
100
AcDbEntity
  8
dim
100
AcDbLine
 10
148.97
 20
139.739264196
 30
0.0
 11
150.708666487
 21
140.205138477
 31
0.0
  0
LINE
  5
6A3
330
1F
100
AcDbEntity
  8
dim
100
AcDbLine
 10
148.97
 20
139.739264196
 30
0.0
 11
158.97
 21
139.739264196
 31
0.0
  0
LINE
  5
6A4
330
1F
100
AcDbEntity
  8
dim
100
AcDbLine
 10
158.97
 20
139.739264196
 30
0.0
 11
157.231333513
 21
140.205138477
 31
0.0
  0
LINE
  5
6A5
330
1F
100
AcDbEntity
  8
dim
100
AcDbLine
 10
158.97
 20
139.739264196
 30
0.0
 11
157.231333513
 21
139.273389915
 31
0.0
  0
LINE
  5
6A6
330
1F
100
AcDbEntity
  8
dim
100
AcDbLine
 10
158.97
 20
147.67
 30
0.0
 11
158.97
 21
138.739264196
 31
0.0
  0
LINE
  5
6A7
330
1F
100
AcDbEntity
  8
dim
100
AcDbLine
 10
158.97
 20
139.739264196
 30
0.0
 11
160.708666487
 21
139.273389915
 31
0.0
  0
LINE
  5
6A8
330
1F
100
AcDbEntity
  8
dim
100
AcDbLine
 10
158.97
 20
139.739264196
 30
0.0
 11
160.708666487
 21
140.205138477
 31
0.0
  0
LINE
  5
6A9
330
1F
100
AcDbEntity
  8
dim
100
AcDbLine
 10
158.97
 20
139.739264196
 30
0.0
 11
168.97
 21
139.739264196
 31
0.0
  0
LINE
  5
6AA
330
1F
100
AcDbEntity
  8
dim
100
AcDbLine
 10
168.97
 20
139.739264196
 30
0.0
 11
167.231333513
 21
140.205138477
 31
0.0
  0
LINE
  5
6AB
330
1F
100
AcDbEntity
  8
dim
100
AcDbLine
 10
168.97
 20
139.739264196
 30
0.0
 11
167.231333513
 21
139.273389915
 31
0.0
  0
LINE
  5
6AC
330
1F
100
AcDbEntity
  8
dim
100
AcDbLine
 10
168.97
 20
146.07
 30
0.0
 11
168.97
 21
138.739264196
 31
0.0
  0
LINE
  5
6AD
330
1F
100
AcDbEntity
  8
dim
100
AcDbLine
 10
168.97
 20
132.97
 30
0.0
 11
167.231333513
 21
133.435874281
 31
0.0
  0
LINE
  5
6AE
330
1F
100
AcDbEntity
  8
dim
100
AcDbLine
 10
168.97
 20
132.97
 30
0.0
 11
167.231333513
 21
132.504125719
 31
0.0
  0
LINE
  5
6AF
330
1F
100
AcDbEntity
  8
dim
100
AcDbLine
 10
168.97
 20
139.239264196
 30
0.0
 11
168.97
 21
131.97
 31
0.0
  0
LINE
  5
6B0
330
1F
100
AcDbEntity
  8
dim
100
AcDbLine
 10
74.97
 20
147.67
 30
0.0
 11
74.97
 21
131.97
 31
0.0
  0
LINE
  5
6B1
330
1F
100
AcDbEntity
  8
dim
100
AcDbLine
 10
74.97
 20
132.97
 30
0.0
 11
76.708666487
 21
132.504125719
 31
0.0
  0
LINE
  5
6B2
330
1F
100
AcDbEntity
  8
dim
100
AcDbLine
 10
74.97
 20
132.97
 30
0.0
 11
76.708666487
 21
133.435874281
 31
0.0
  0
LINE
  5
6B3
330
1F
100
AcDbEntity
  8
dim
100
AcDbLine
 10
74.97
 20
132.97
 30
0.0
 11
168.97
 21
132.97
 31
0.0
  0
LINE
  5
6B4
330
1F
100
AcDbEntity
  8
dim
100
AcDbLine
 10
121.97
 20
176.57
 30
0.0
 11
121.97
 21
137.57
 31
0.0
  0
LINE
  5
6B5
330
1F
100
AcDbEntity
  8
dim
100
AcDbLine
 10
77.64
 20
158.57
 30
0.0
 11
69.07
 21
158.57
 31
0.0
  0
LINE
  5
6B6
330
1F
100
AcDbEntity
  8
dim
100
AcDbLine
 10
70.07
 20
158.57
 30
0.0
 11
69.604125719
 21
156.831333513
 31
0.0
  0
LINE
  5
6B7
330
1F
100
AcDbEntity
  8
dim
100
AcDbLine
 10
70.07
 20
158.57
 30
0.0
 11
70.535874281
 21
156.831333513
 31
0.0
  0
LINE
  5
6B8
330
1F
100
AcDbEntity
  8
dim
100
AcDbLine
 10
70.07
 20
155.87
 30
0.0
 11
70.07
 21
158.57
 31
0.0
  0
LINE
  5
6B9
330
1F
100
AcDbEntity
  8
dim
100
AcDbLine
 10
70.07
 20
158.57
 30
0.0
 11
70.07
 21
160.82
 31
0.0
  0
LINE
  5
6BA
330
1F
100
AcDbEntity
  8
dim
100
AcDbLine
 10
70.07
 20
160.82
 30
0.0
 11
70.07
 21
170.32
 31
0.0
  0
LINE
  5
6BB
330
1F
100
AcDbEntity
  8
dim
100
AcDbLine
 10
70.07
 20
160.82
 30
0.0
 11
70.535874281
 21
162.558666487
 31
0.0
  0
LINE
  5
6BC
330
1F
100
AcDbEntity
  8
dim
100
AcDbLine
 10
70.07
 20
160.82
 30
0.0
 11
69.604125719
 21
162.558666487
 31
0.0
  0
LINE
  5
6BD
330
1F
100
AcDbEntity
  8
dim
100
AcDbLine
 10
76.47
 20
160.82
 30
0.0
 11
69.07
 21
160.82
 31
0.0
  0
LINE
  5
6BE
330
1F
100
AcDbEntity
  8
dim
100
AcDbLine
 10
68.57
 20
158.57
 30
0.0
 11
63.67
 21
158.57
 31
0.0
  0
LINE
  5
6BF
330
1F
100
AcDbEntity
  8
dim
100
AcDbLine
 10
64.67
 20
158.57
 30
0.0
 11
65.135874281
 21
160.308666487
 31
0.0
  0
LINE
  5
6C0
330
1F
100
AcDbEntity
  8
dim
100
AcDbLine
 10
64.67
 20
158.57
 30
0.0
 11
64.204125719
 21
160.308666487
 31
0.0
  0
LINE
  5
6C1
330
1F
100
AcDbEntity
  8
dim
100
AcDbLine
 10
64.67
 20
161.27
 30
0.0
 11
64.67
 21
158.57
 31
0.0
  0
LINE
  5
6C2
330
1F
100
AcDbEntity
  8
dim
100
AcDbLine
 10
64.67
 20
158.57
 30
0.0
 11
64.67
 21
156.32
 31
0.0
  0
LINE
  5
6C3
330
1F
100
AcDbEntity
  8
dim
100
AcDbLine
 10
64.67
 20
156.32
 30
0.0
 11
64.67
 21
146.82
 31
0.0
  0
LINE
  5
6C4
330
1F
100
AcDbEntity
  8
dim
100
AcDbLine
 10
64.67
 20
156.32
 30
0.0
 11
64.204125719
 21
154.581333513
 31
0.0
  0
LINE
  5
6C5
330
1F
100
AcDbEntity
  8
dim
100
AcDbLine
 10
64.67
 20
156.32
 30
0.0
 11
65.135874281
 21
154.581333513
 31
0.0
  0
LINE
  5
6C6
330
1F
100
AcDbEntity
  8
dim
100
AcDbLine
 10
86.47
 20
156.32
 30
0.0
 11
63.67
 21
156.32
 31
0.0
  0
LINE
  5
6C7
330
1F
100
AcDbEntity
  8
dim
100
AcDbLine
 10
104.37
 20
77.302250994
 30
0.0
 11
104.37
 21
68.90225099400003
 31
0.0
  0
LINE
  5
6C8
330
1F
100
AcDbEntity
  8
dim
100
AcDbLine
 10
104.37
 20
69.90225099400003
 30
0.0
 11
106.108666487
 21
69.436376713
 31
0.0
  0
LINE
  5
6C9
330
1F
100
AcDbEntity
  8
dim
100
AcDbLine
 10
104.37
 20
69.90225099400003
 30
0.0
 11
106.108666487
 21
70.36812527500003
 31
0.0
  0
LINE
  5
6CA
330
1F
100
AcDbEntity
  8
dim
100
AcDbLine
 10
104.37
 20
69.90225099400003
 30
0.0
 11
139.57
 21
69.90225099400003
 31
0.0
  0
LINE
  5
6CB
330
1F
100
AcDbEntity
  8
dim
100
AcDbLine
 10
139.57
 20
69.90225099400003
 30
0.0
 11
137.831333513
 21
70.36812527500003
 31
0.0
  0
LINE
  5
6CC
330
1F
100
AcDbEntity
  8
dim
100
AcDbLine
 10
139.57
 20
69.90225099400003
 30
0.0
 11
137.831333513
 21
69.436376713
 31
0.0
  0
LINE
  5
6CD
330
1F
100
AcDbEntity
  8
dim
100
AcDbLine
 10
139.57
 20
77.302250994
 30
0.0
 11
139.57
 21
68.90225099400003
 31
0.0
  0
LINE
  5
6CE
330
1F
100
AcDbEntity
  8
dim
100
AcDbLine
 10
103.97
 20
72.802250994
 30
0.0
 11
103.97
 21
63.75225099400001
 31
0.0
  0
LINE
  5
6CF
330
1F
100
AcDbEntity
  8
dim
100
AcDbLine
 10
103.97
 20
64.75225099400001
 30
0.0
 11
105.708666487
 21
64.28637671300001
 31
0.0
  0
LINE
  5
6D0
330
1F
100
AcDbEntity
  8
dim
100
AcDbLine
 10
103.97
 20
64.75225099400001
 30
0.0
 11
105.708666487
 21
65.21812527500002
 31
0.0
  0
LINE
  5
6D1
330
1F
100
AcDbEntity
  8
dim
100
AcDbLine
 10
103.97
 20
64.75225099400001
 30
0.0
 11
139.97
 21
64.75225099400001
 31
0.0
  0
LINE
  5
6D2
330
1F
100
AcDbEntity
  8
dim
100
AcDbLine
 10
139.97
 20
64.75225099400001
 30
0.0
 11
138.231333513
 21
65.21812527500002
 31
0.0
  0
LINE
  5
6D3
330
1F
100
AcDbEntity
  8
dim
100
AcDbLine
 10
139.97
 20
64.75225099400001
 30
0.0
 11
138.231333513
 21
64.28637671300001
 31
0.0
  0
LINE
  5
6D4
330
1F
100
AcDbEntity
  8
dim
100
AcDbLine
 10
139.97
 20
72.802250994
 30
0.0
 11
139.97
 21
63.75225099400001
 31
0.0
  0
TEXT
  5
6D5
330
1F
100
AcDbEntity
  8
dim
100
AcDbText
 10
120.42
 20
197.0
 30
0.0
 40
2.2
  1
98.1
  7
title1
100
AcDbText
  0
TEXT
  5
6D6
330
1F
100
AcDbEntity
  8
dim
100
AcDbText
 10
120.47
 20
187.0
 30
0.0
 40
2.2
  1
83
  7
title1
100
AcDbText
  0
TEXT
  5
6D7
330
1F
100
AcDbEntity
  8
dim
100
AcDbText
 10
120.47
 20
182.0
 30
0.0
 40
2.2
  1
63
  7
title1
100
AcDbText
  0
TEXT
  5
6D8
330
1F
100
AcDbEntity
  8
dim
100
AcDbText
 10
120.47
 20
177.0
 30
0.0
 40
2.2
  1
54
  7
title1
100
AcDbText
  0
TEXT
  5
6D9
330
1F
100
AcDbEntity
  8
dim
100
AcDbText
 10
69.07
 20
163.52
 30
0.0
 40
2.2
  1
2.25
 50
90.0
  7
title1
100
AcDbText
  0
TEXT
  5
6DA
330
1F
100
AcDbEntity
  8
dim
100
AcDbText
 10
63.97
 20
149.0
 30
0.0
 40
2.2
  1
2.25
 50
90.0
  7
title1
100
AcDbText
  0
TEXT
  5
6DB
330
1F
100
AcDbEntity
  8
dim
100
AcDbText
 10
120.27
 20
133.97
 30
0.0
 40
2.2
  1
94
  7
title1
100
AcDbText
  0
TEXT
  5
6DC
330
1F
100
AcDbEntity
  8
dim
100
AcDbText
 10
152.27
 20
140.739264196
 30
0.0
 40
2.2
  1
10
  7
title1
100
AcDbText
  0
TEXT
  5
6DD
330
1F
100
AcDbEntity
  8
dim
100
AcDbText
 10
162.27
 20
140.739264196
 30
0.0
 40
2.2
  1
10
  7
title1
100
AcDbText
  0
TEXT
  5
6DE
330
1F
100
AcDbEntity
  8
dim
100
AcDbText
 10
179.62
 20
155.47
 30
0.0
 40
2.2
  1
9
 50
90.0
  7
title1
100
AcDbText
  0
TEXT
  5
6DF
330
1F
100
AcDbEntity
  8
dim
100
AcDbText
 10
184.77
 20
159.97
 30
0.0
 40
2.2
  1
9
 50
90.0
  7
title1
100
AcDbText
  0
TEXT
  5
6E0
330
1F
100
AcDbEntity
  8
dim
100
AcDbText
 10
188.97
 20
157.5
 30
0.0
 40
2.2
  1
25
 50
90.0
  7
title1
100
AcDbText
  0
TEXT
  5
6E1
330
1F
100
AcDbEntity
  8
dim
100
AcDbText
 10
220.14
 20
190.72
 30
0.0
 40
2.2
  1
40.8
  7
title1
100
AcDbText
  0
TEXT
  5
6E2
330
1F
100
AcDbEntity
  8
dim
100
AcDbText
 10
226.64
 20
184.27
 30
0.0
 40
2.2
  1
27.8
  7
title1
100
AcDbText
  0
TEXT
  5
6E3
330
1F
100
AcDbEntity
  8
dim
100
AcDbText
 10
219.97
 20
178.0
 30
0.0
 40
2.2
  1
6.5
  7
title1
100
AcDbText
  0
TEXT
  5
6E4
330
1F
100
AcDbEntity
  8
dim
100
AcDbText
 10
231.14
 20
177.72
 30
0.0
 40
2.2
  1
18.8
  7
title1
100
AcDbText
  0
TEXT
  5
6E5
330
1F
100
AcDbEntity
  8
dim
100
AcDbText
 10
233.340004988
 20
155.17
 30
0.0
 40
2.2
  1
11.5
 50
90.0
  7
title1
100
AcDbText
  0
TEXT
  5
6E6
330
1F
100
AcDbEntity
  8
dim
100
AcDbText
 10
119.47
 20
70.50000000000001
 30
0.0
 40
2.2
  1
35.2
  7
title1
100
AcDbText
  0
TEXT
  5
6E7
330
1F
100
AcDbEntity
  8
dim
100
AcDbText
 10
120.27
 20
65.75225099400001
 30
0.0
 40
2.2
  1
36
  7
title1
100
AcDbText
  0
TEXT
  5
6E8
330
1F
100
AcDbEntity
  8
dim
100
AcDbText
 10
178.97
 20
92.00000000000001
 30
0.0
 40
2.2
  1
40.8
 50
90.0
  7
title1
100
AcDbText
  0
LINE
  5
6E9
330
1F
100
AcDbEntity
  8
dim
100
AcDbLine
 10
297.47
 20
16.25000000000001
 30
0.0
 11
318.5700000000001
 21
16.25000000000001
 31
0.0
  0
LINE
  5
6EA
330
1F
100
AcDbEntity
  8
dim
100
AcDbLine
 10
316.5700000000001
 20
14.15000000000002
 30
0.0
 11
316.5700000000001
 21
16.25000000000001
 31
0.0
  0
LINE
  5
6EB
330
1F
100
AcDbEntity
  8
dim
100
AcDbLine
 10
298.0700000000001
 20
16.40000000000002
 30
0.0
 11
317.97
 21
16.40000000000002
 31
0.0
  0
LINE
  5
6EC
330
1F
100
AcDbEntity
  8
dim
100
AcDbLine
 10
308.5700000000001
 20
16.25000000000001
 30
0.0
 11
308.5700000000001
 21
16.40000000000002
 31
0.0
  0
ARC
  5
6ED
330
1F
100
AcDbEntity
  8
dim
100
AcDbCircle
 10
314.570221577
 20
16.70000000000002
 30
0.0
 40
0.75
100
AcDbArc
 50
323.1301023539996
 51
336.4218215219997
  0
ARC
  5
6EE
330
1F
100
AcDbEntity
  8
dim
100
AcDbCircle
 10
314.570221577
 20
16.70000000000002
 30
0.0
 40
0.749999999999954
100
AcDbArc
 50
203.5781784780017
 51
216.8698976460017
  0
LINE
  5
6EF
330
1F
100
AcDbEntity
  8
dim
100
AcDbLine
 10
313.906896619
 20
16.35000000000001
 30
0.0
 11
310.02
 21
16.35000000000001
 31
0.0
  0
LINE
  5
6F0
330
1F
100
AcDbEntity
  8
dim
100
AcDbLine
 10
316.12
 20
16.35000000000001
 30
0.0
 11
315.233546535
 21
16.35000000000001
 31
0.0
  0
ARC
  5
6F1
330
1F
100
AcDbEntity
  8
dim
100
AcDbCircle
 10
316.12
 20
16.85000000000001
 30
0.0
 40
0.5
100
AcDbArc
 50
270.0
 51
295.841932763
  0
LINE
  5
6F2
330
1F
100
AcDbEntity
  8
dim
100
AcDbLine
 10
313.5700000000001
 20
16.40000000000002
 30
0.0
 11
313.5700000000001
 21
16.35000000000001
 31
0.0
  0
LINE
  5
6F3
330
1F
100
AcDbEntity
  8
dim
100
AcDbLine
 10
312.5700000000001
 20
16.40000000000002
 30
0.0
 11
312.5700000000001
 21
16.35000000000001
 31
0.0
  0
ARC
  5
6F4
330
1F
100
AcDbEntity
  8
dim
100
AcDbCircle
 10
310.02
 20
16.85000000000001
 30
0.0
 40
0.5000000000000133
100
AcDbArc
 50
244.1580672369985
 51
269.9999999999985
  0
LINE
  5
6F5
330
1F
100
AcDbEntity
  8
dim
100
AcDbLine
 10
318.47
 20
27.05050506300002
 30
0.0
 11
307.8194949369999
 21
16.40000000000002
 31
0.0
  0
LINE
  5
6F6
330
1F
100
AcDbEntity
  8
dim
100
AcDbLine
 10
309.233708499
 20
16.40000000000002
 30
0.0
 11
318.47
 21
25.63629150100002
 31
0.0
  0
LINE
  5
6F7
330
1F
100
AcDbEntity
  8
dim
100
AcDbLine
 10
318.47
 20
24.22207793900002
 30
0.0
 11
310.647922061
 21
16.40000000000002
 31
0.0
  0
LINE
  5
6F8
330
1F
100
AcDbEntity
  8
dim
100
AcDbLine
 10
312.062135624
 20
16.40000000000002
 30
0.0
 11
318.47
 21
22.80786437600001
 31
0.0
  0
LINE
  5
6F9
330
1F
100
AcDbEntity
  8
dim
100
AcDbLine
 10
318.47
 20
21.39365081400001
 30
0.0
 11
313.476349186
 21
16.40000000000002
 31
0.0
  0
LINE
  5
6FA
330
1F
100
AcDbEntity
  8
dim
100
AcDbLine
 10
314.890562748
 20
16.40000000000002
 30
0.0
 11
318.47
 21
19.97943725200001
 31
0.0
  0
LINE
  5
6FB
330
1F
100
AcDbEntity
  8
dim
100
AcDbLine
 10
318.47
 20
18.56522368900002
 30
0.0
 11
316.304776311
 21
16.40000000000002
 31
0.0
  0
LINE
  5
6FC
330
1F
100
AcDbEntity
  8
dim
100
AcDbLine
 10
300.02
 20
36.95000000000002
 30
0.0
 11
306.12
 21
36.95000000000002
 31
0.0
  0
TEXT
  5
6FD
330
1F
100
AcDbEntity
  8
dim
100
AcDbText
 10
305.95
 20
37.42000000000002
 30
0.0
 40
2.0
  1
６
 50
90.0
  7
title1
100
AcDbText
  0
LINE
  5
6FE
330
1F
100
AcDbEntity
  8
dim
100
AcDbLine
 10
298.5700000000001
 20
37.15000000000002
 30
0.0
 11
316.5700000000001
 21
37.15000000000002
 31
0.0
  0
LINE
  5
6FF
330
1F
100
AcDbEntity
  8
dim
100
AcDbLine
 10
300.37
 20
37.15000000000002
 30
0.0
 11
300.37
 21
38.15000000000002
 31
0.0
  0
LINE
  5
700
330
1F
100
AcDbEntity
  8
dim
100
AcDbLine
 10
298.0700000000001
 20
36.90000000000002
 30
0.0
 11
317.97
 21
36.90000000000002
 31
0.0
  0
ARC
  5
701
330
1F
100
AcDbEntity
  8
dim
100
AcDbCircle
 10
300.02
 20
36.45000000000002
 30
0.0
 40
0.5
100
AcDbArc
 50
90.0
 51
115.841932764
  0
LINE
  5
702
330
1F
100
AcDbEntity
  8
dim
100
AcDbLine
 10
302.5700000000001
 20
36.90000000000002
 30
0.0
 11
302.5700000000001
 21
36.95000000000002
 31
0.0
  0
LINE
  5
703
330
1F
100
AcDbEntity
  8
dim
100
AcDbLine
 10
303.5700000000001
 20
36.90000000000002
 30
0.0
 11
303.5700000000001
 21
36.95000000000002
 31
0.0
  0
ARC
  5
704
330
1F
100
AcDbEntity
  8
dim
100
AcDbCircle
 10
306.12
 20
36.45000000000002
 30
0.0
 40
0.5000000000000049
100
AcDbArc
 50
64.15806723599934
 51
89.99999999999935
  0
LINE
  5
705
330
1F
100
AcDbEntity
  8
dim
100
AcDbLine
 10
299.27
 20
37.15000000000002
 30
0.0
 11
299.27
 21
36.90000000000002
 31
0.0
  0
LINE
  5
706
330
1F
100
AcDbEntity
  8
dim
100
AcDbLine
 10
308.5700000000001
 20
36.90000000000002
 30
0.0
 11
308.5700000000001
 21
37.15000000000002
 31
0.0
  0
LINE
  5
707
330
1F
100
AcDbEntity
  8
dim
100
AcDbLine
 10
300.035223689
 20
36.90000000000002
 30
0.0
 11
297.87
 21
34.73477631100002
 31
0.0
  0
LINE
  5
708
330
1F
100
AcDbEntity
  8
dim
100
AcDbLine
 10
297.87
 20
33.32056274800001
 30
0.0
 11
301.4494372520001
 21
36.90000000000002
 31
0.0
  0
LINE
  5
709
330
1F
100
AcDbEntity
  8
dim
100
AcDbLine
 10
302.863650814
 20
36.90000000000002
 30
0.0
 11
297.87
 21
31.90634918600001
 31
0.0
  0
LINE
  5
70A
330
1F
100
AcDbEntity
  8
dim
100
AcDbLine
 10
297.87
 20
30.49213562400001
 30
0.0
 11
304.277864376
 21
36.90000000000002
 31
0.0
  0
LINE
  5
70B
330
1F
100
AcDbEntity
  8
dim
100
AcDbLine
 10
305.692077939
 20
36.90000000000002
 30
0.0
 11
297.87
 21
29.07792206100001
 31
0.0
  0
LINE
  5
70C
330
1F
100
AcDbEntity
  8
dim
100
AcDbLine
 10
297.87
 20
27.66370849900001
 30
0.0
 11
307.106291501
 21
36.90000000000002
 31
0.0
  0
LINE
  5
70D
330
1F
100
AcDbEntity
  8
dim
100
AcDbLine
 10
308.520505063
 20
36.90000000000002
 30
0.0
 11
297.87
 21
26.24949493700001
 31
0.0
  0
LINE
  5
70E
330
1F
100
AcDbEntity
  8
dim
100
AcDbLine
 10
297.87
 20
24.83528137400002
 30
0.0
 11
309.9347186259999
 21
36.90000000000002
 31
0.0
  0
LINE
  5
70F
330
1F
100
AcDbEntity
  8
dim
100
AcDbLine
 10
311.348932188
 20
36.90000000000002
 30
0.0
 11
297.87
 21
23.42106781200002
 31
0.0
  0
LINE
  5
710
330
1F
100
AcDbEntity
  8
dim
100
AcDbLine
 10
271.5700000000001
 20
36.95000000000002
 30
0.0
 11
246.27
 21
36.95000000000002
 31
0.0
  0
LINE
  5
711
330
1F
100
AcDbEntity
  8
dim
100
AcDbLine
 10
246.27
 20
17.85000000000001
 30
0.0
 11
246.27
 21
36.95000000000002
 31
0.0
  0
TEXT
  5
712
330
1F
100
AcDbEntity
  8
dim
100
AcDbText
 10
231.02
 20
14.55000000000001
 30
0.0
 40
2.0
  1
１
 50
90.0
  7
title1
100
AcDbText
  0
TEXT
  5
713
330
1F
100
AcDbEntity
  8
dim
100
AcDbText
 10
231.02
 20
37.45000000000002
 30
0.0
 40
2.0
  1
２
 50
90.0
  7
title1
100
AcDbText
  0
TEXT
  5
714
330
1F
100
AcDbEntity
  8
dim
100
AcDbText
 10
239.02
 20
37.45000000000002
 30
0.0
 40
2.0
  1
４
 50
90.0
  7
title1
100
AcDbText
  0
TEXT
  5
715
330
1F
100
AcDbEntity
  8
dim
100
AcDbText
 10
239.02
 20
14.55000000000001
 30
0.0
 40
2.0
  1
３
 50
90.0
  7
title1
100
AcDbText
  0
LINE
  5
716
330
1F
100
AcDbEntity
  8
dim
100
AcDbLine
 10
246.27
 20
36.95000000000002
 30
0.0
 11
246.27
 21
16.35000000000001
 31
0.0
  0
ARC
  5
717
330
1F
100
AcDbEntity
  8
dim
100
AcDbCircle
 10
225.07
 20
38.65000000000002
 30
0.0
 40
0.5
100
AcDbArc
 50
90.0
 51
180.0
  0
LINE
  5
718
330
1F
100
AcDbEntity
  8
dim
100
AcDbLine
 10
224.57
 20
14.65000000000002
 30
0.0
 11
224.57
 21
38.65000000000002
 31
0.0
  0
ARC
  5
719
330
1F
100
AcDbEntity
  8
dim
100
AcDbCircle
 10
225.07
 20
14.65000000000002
 30
0.0
 40
0.5
100
AcDbArc
 50
180.0
 51
270.0
  0
LINE
  5
71A
330
1F
100
AcDbEntity
  8
dim
100
AcDbLine
 10
245.67
 20
34.65000000000002
 30
0.0
 11
245.67
 21
33.65000000000002
 31
0.0
  0
LINE
  5
71B
330
1F
100
AcDbEntity
  8
dim
100
AcDbLine
 10
245.67
 20
32.15000000000002
 30
0.0
 11
245.67
 21
31.15000000000002
 31
0.0
  0
LINE
  5
71C
330
1F
100
AcDbEntity
  8
dim
100
AcDbLine
 10
245.67
 20
29.65000000000002
 30
0.0
 11
245.67
 21
28.65000000000002
 31
0.0
  0
LINE
  5
71D
330
1F
100
AcDbEntity
  8
dim
100
AcDbLine
 10
245.67
 20
27.15000000000002
 30
0.0
 11
245.67
 21
26.15000000000002
 31
0.0
  0
LINE
  5
71E
330
1F
100
AcDbEntity
  8
dim
100
AcDbLine
 10
245.67
 20
24.65000000000002
 30
0.0
 11
245.67
 21
23.65000000000002
 31
0.0
  0
LINE
  5
71F
330
1F
100
AcDbEntity
  8
dim
100
AcDbLine
 10
245.67
 20
22.15000000000002
 30
0.0
 11
245.67
 21
21.15000000000002
 31
0.0
  0
LINE
  5
720
330
1F
100
AcDbEntity
  8
dim
100
AcDbLine
 10
245.67
 20
19.65000000000002
 30
0.0
 11
245.67
 21
18.65000000000002
 31
0.0
  0
LINE
  5
721
330
1F
100
AcDbEntity
  8
dim
100
AcDbLine
 10
246.27
 20
36.15000000000002
 30
0.0
 11
245.67
 21
36.15000000000002
 31
0.0
  0
LINE
  5
722
330
1F
100
AcDbEntity
  8
dim
100
AcDbLine
 10
246.27
 20
34.65000000000002
 30
0.0
 11
245.67
 21
34.65000000000002
 31
0.0
  0
LINE
  5
723
330
1F
100
AcDbEntity
  8
dim
100
AcDbLine
 10
246.27
 20
33.65000000000002
 30
0.0
 11
245.67
 21
33.65000000000002
 31
0.0
  0
LINE
  5
724
330
1F
100
AcDbEntity
  8
dim
100
AcDbLine
 10
246.27
 20
32.15000000000002
 30
0.0
 11
245.67
 21
32.15000000000002
 31
0.0
  0
LINE
  5
725
330
1F
100
AcDbEntity
  8
dim
100
AcDbLine
 10
246.27
 20
31.15000000000002
 30
0.0
 11
245.67
 21
31.15000000000002
 31
0.0
  0
LINE
  5
726
330
1F
100
AcDbEntity
  8
dim
100
AcDbLine
 10
246.27
 20
29.65000000000002
 30
0.0
 11
245.67
 21
29.65000000000002
 31
0.0
  0
LINE
  5
727
330
1F
100
AcDbEntity
  8
dim
100
AcDbLine
 10
246.27
 20
28.65000000000002
 30
0.0
 11
245.67
 21
28.65000000000002
 31
0.0
  0
LINE
  5
728
330
1F
100
AcDbEntity
  8
dim
100
AcDbLine
 10
246.27
 20
27.15000000000002
 30
0.0
 11
245.67
 21
27.15000000000002
 31
0.0
  0
LINE
  5
729
330
1F
100
AcDbEntity
  8
dim
100
AcDbLine
 10
246.27
 20
26.15000000000002
 30
0.0
 11
245.67
 21
26.15000000000002
 31
0.0
  0
LINE
  5
72A
330
1F
100
AcDbEntity
  8
dim
100
AcDbLine
 10
246.27
 20
24.65000000000002
 30
0.0
 11
245.67
 21
24.65000000000002
 31
0.0
  0
LINE
  5
72B
330
1F
100
AcDbEntity
  8
dim
100
AcDbLine
 10
246.27
 20
23.65000000000002
 30
0.0
 11
245.67
 21
23.65000000000002
 31
0.0
  0
LINE
  5
72C
330
1F
100
AcDbEntity
  8
dim
100
AcDbLine
 10
246.27
 20
22.15000000000002
 30
0.0
 11
245.67
 21
22.15000000000002
 31
0.0
  0
LINE
  5
72D
330
1F
100
AcDbEntity
  8
dim
100
AcDbLine
 10
246.27
 20
21.15000000000002
 30
0.0
 11
245.67
 21
21.15000000000002
 31
0.0
  0
LINE
  5
72E
330
1F
100
AcDbEntity
  8
dim
100
AcDbLine
 10
246.27
 20
19.65000000000002
 30
0.0
 11
245.67
 21
19.65000000000002
 31
0.0
  0
LINE
  5
72F
330
1F
100
AcDbEntity
  8
dim
100
AcDbLine
 10
246.27
 20
18.65000000000002
 30
0.0
 11
245.67
 21
18.65000000000002
 31
0.0
  0
LINE
  5
730
330
1F
100
AcDbEntity
  8
dim
100
AcDbLine
 10
246.27
 20
17.15000000000002
 30
0.0
 11
245.67
 21
17.15000000000002
 31
0.0
  0
LINE
  5
731
330
1F
100
AcDbEntity
  8
dim
100
AcDbLine
 10
245.67
 20
17.15000000000002
 30
0.0
 11
245.67
 21
16.25000000000001
 31
0.0
  0
ARC
  5
732
330
1F
100
AcDbEntity
  8
dim
100
AcDbCircle
 10
243.77
 20
38.15000000000002
 30
0.0
 40
1.0
100
AcDbArc
 50
90.0
 51
180.0
  0
LINE
  5
733
330
1F
100
AcDbEntity
  8
dim
100
AcDbLine
 10
243.77
 20
39.15000000000002
 30
0.0
 11
225.07
 21
39.15000000000002
 31
0.0
  0
ARC
  5
734
330
1F
100
AcDbEntity
  8
dim
100
AcDbCircle
 10
243.67
 20
15.15000000000002
 30
0.0
 40
1.0
100
AcDbArc
 50
180.0
 51
270.0
  0
LINE
  5
735
330
1F
100
AcDbEntity
  8
dim
100
AcDbLine
 10
242.67
 20
16.25000000000001
 30
0.0
 11
242.67
 21
15.15000000000002
 31
0.0
  0
LINE
  5
736
330
1F
100
AcDbEntity
  8
dim
100
AcDbLine
 10
226.57
 20
14.15000000000002
 30
0.0
 11
226.57
 21
16.25000000000001
 31
0.0
  0
LWPOLYLINE
  5
737
330
1F
100
AcDbEntity
  8
dim
100
AcDbPolyline
 90
        3
 70
     0
 43
0.0
 10
244.57
 20
37.15000000000002
 10
245.67
 20
37.15000000000002
 10
245.67
 20
36.15000000000002
  0
LINE
  5
738
330
1F
100
AcDbEntity
  8
dim
100
AcDbLine
 10
226.57
 20
39.15000000000002
 30
0.0
 11
226.57
 21
37.15000000000002
 31
0.0
  0
LINE
  5
739
330
1F
100
AcDbEntity
  8
dim
100
AcDbLine
 10
242.77
 20
37.15000000000002
 30
0.0
 11
242.77
 21
38.15000000000002
 31
0.0
  0
LINE
  5
73A
330
1F
100
AcDbEntity
  8
dim
100
AcDbLine
 10
246.27
 20
16.35000000000001
 30
0.0
 11
246.27
 21
35.45000000000002
 31
0.0
  0
LINE
  5
73B
330
1F
100
AcDbEntity
  8
dim
100
AcDbLine
 10
246.27
 20
36.15000000000002
 30
0.0
 11
246.27
 21
16.35000000000001
 31
0.0
  0
LINE
  5
73C
330
1F
100
AcDbEntity
  8
dim
100
AcDbLine
 10
245.67
 20
36.15000000000002
 30
0.0
 11
245.67
 21
34.65000000000002
 31
0.0
  0
LINE
  5
73D
330
1F
100
AcDbEntity
  8
dim
100
AcDbLine
 10
245.67
 20
33.65000000000002
 30
0.0
 11
245.67
 21
32.15000000000002
 31
0.0
  0
LINE
  5
73E
330
1F
100
AcDbEntity
  8
dim
100
AcDbLine
 10
245.67
 20
31.15000000000002
 30
0.0
 11
245.67
 21
29.65000000000002
 31
0.0
  0
LINE
  5
73F
330
1F
100
AcDbEntity
  8
dim
100
AcDbLine
 10
245.67
 20
28.65000000000002
 30
0.0
 11
245.67
 21
27.15000000000002
 31
0.0
  0
LINE
  5
740
330
1F
100
AcDbEntity
  8
dim
100
AcDbLine
 10
245.67
 20
26.15000000000002
 30
0.0
 11
245.67
 21
24.65000000000002
 31
0.0
  0
LINE
  5
741
330
1F
100
AcDbEntity
  8
dim
100
AcDbLine
 10
245.67
 20
23.65000000000002
 30
0.0
 11
245.67
 21
22.15000000000002
 31
0.0
  0
LINE
  5
742
330
1F
100
AcDbEntity
  8
dim
100
AcDbLine
 10
245.67
 20
21.15000000000002
 30
0.0
 11
245.67
 21
19.65000000000002
 31
0.0
  0
LINE
  5
743
330
1F
100
AcDbEntity
  8
dim
100
AcDbLine
 10
245.67
 20
18.65000000000002
 30
0.0
 11
245.67
 21
17.15000000000002
 31
0.0
  0
LINE
  5
744
330
1F
100
AcDbEntity
  8
dim
100
AcDbLine
 10
243.77
 20
39.15000000000002
 30
0.0
 11
299.37
 21
39.15000000000002
 31
0.0
  0
LINE
  5
745
330
1F
100
AcDbEntity
  8
dim
100
AcDbLine
 10
318.0700000000001
 20
14.15000000000002
 30
0.0
 11
225.07
 21
14.15000000000002
 31
0.0
  0
LINE
  5
746
330
1F
100
AcDbEntity
  8
dim
100
AcDbLine
 10
237.995172312
 20
32.31512180600001
 30
0.0
 11
237.995172312
 21
32.31512180600001
 31
0.0
  0
LINE
  5
747
330
1F
100
AcDbEntity
  8
dim
100
AcDbLine
 10
243.12
 20
36.95000000000002
 30
0.0
 11
237.02
 21
36.95000000000002
 31
0.0
  0
ARC
  5
748
330
1F
100
AcDbEntity
  8
dim
100
AcDbCircle
 10
225.17
 20
36.40000000000002
 30
0.0
 40
0.5
100
AcDbArc
 50
90.0
 51
180.0
  0
LINE
  5
749
330
1F
100
AcDbEntity
  8
dim
100
AcDbLine
 10
245.07
 20
36.90000000000002
 30
0.0
 11
245.27
 21
36.90000000000002
 31
0.0
  0
LINE
  5
74A
330
1F
100
AcDbEntity
  8
dim
100
AcDbLine
 10
245.07
 20
36.90000000000002
 30
0.0
 11
225.17
 21
36.90000000000002
 31
0.0
  0
LINE
  5
74B
330
1F
100
AcDbEntity
  8
dim
100
AcDbLine
 10
245.27
 20
36.90000000000002
 30
0.0
 11
245.27
 21
26.65000000000002
 31
0.0
  0
LINE
  5
74C
330
1F
100
AcDbEntity
  8
dim
100
AcDbLine
 10
224.67
 20
36.40000000000002
 30
0.0
 11
224.67
 21
26.65000000000002
 31
0.0
  0
LINE
  5
74D
330
1F
100
AcDbEntity
  8
dim
100
AcDbLine
 10
245.27
 20
16.40000000000002
 30
0.0
 11
245.27
 21
26.65000000000002
 31
0.0
  0
LINE
  5
74E
330
1F
100
AcDbEntity
  8
dim
100
AcDbLine
 10
245.07
 20
16.40000000000002
 30
0.0
 11
225.17
 21
16.40000000000002
 31
0.0
  0
LINE
  5
74F
330
1F
100
AcDbEntity
  8
dim
100
AcDbLine
 10
245.07
 20
16.40000000000002
 30
0.0
 11
245.27
 21
16.40000000000002
 31
0.0
  0
LINE
  5
750
330
1F
100
AcDbEntity
  8
dim
100
AcDbLine
 10
224.67
 20
16.90000000000002
 30
0.0
 11
224.67
 21
26.65000000000002
 31
0.0
  0
ARC
  5
751
330
1F
100
AcDbEntity
  8
dim
100
AcDbCircle
 10
225.17
 20
16.90000000000002
 30
0.0
 40
0.5
100
AcDbArc
 50
180.0
 51
270.0
  0
LINE
  5
752
330
1F
100
AcDbEntity
  8
dim
100
AcDbLine
 10
245.07
 20
16.25000000000001
 30
0.0
 11
245.07
 21
16.40000000000002
 31
0.0
  0
LINE
  5
753
330
1F
100
AcDbEntity
  8
dim
100
AcDbLine
 10
243.87
 20
16.25000000000001
 30
0.0
 11
243.87
 21
16.40000000000002
 31
0.0
  0
LINE
  5
754
330
1F
100
AcDbEntity
  8
dim
100
AcDbLine
 10
234.57
 20
16.25000000000001
 30
0.0
 11
234.57
 21
16.40000000000002
 31
0.0
  0
ARC
  5
755
330
1F
100
AcDbEntity
  8
dim
100
AcDbCircle
 10
243.12
 20
36.45000000000002
 30
0.0
 40
0.5000000000000049
100
AcDbArc
 50
64.15806723599934
 51
89.99999999999935
  0
LINE
  5
756
330
1F
100
AcDbEntity
  8
dim
100
AcDbLine
 10
240.57
 20
36.90000000000002
 30
0.0
 11
240.57
 21
36.95000000000002
 31
0.0
  0
LINE
  5
757
330
1F
100
AcDbEntity
  8
dim
100
AcDbLine
 10
239.57
 20
36.90000000000002
 30
0.0
 11
239.57
 21
36.95000000000002
 31
0.0
  0
ARC
  5
758
330
1F
100
AcDbEntity
  8
dim
100
AcDbCircle
 10
237.02
 20
36.45000000000002
 30
0.0
 40
0.5
100
AcDbArc
 50
90.0
 51
115.841932764
  0
LINE
  5
759
330
1F
100
AcDbEntity
  8
dim
100
AcDbLine
 10
243.87
 20
37.15000000000002
 30
0.0
 11
243.87
 21
36.90000000000002
 31
0.0
  0
LINE
  5
75A
330
1F
100
AcDbEntity
  8
dim
100
AcDbLine
 10
245.07
 20
37.15000000000002
 30
0.0
 11
245.07
 21
36.90000000000002
 31
0.0
  0
LINE
  5
75B
330
1F
100
AcDbEntity
  8
dim
100
AcDbLine
 10
234.57
 20
36.90000000000002
 30
0.0
 11
234.57
 21
37.15000000000002
 31
0.0
  0
ARC
  5
75C
330
1F
100
AcDbEntity
  8
dim
100
AcDbCircle
 10
228.569778423
 20
36.60000000000001
 30
0.0
 40
0.7500000000000061
100
AcDbArc
 50
23.57817847800002
 51
47.16657193400002
  0
ARC
  5
75D
330
1F
100
AcDbEntity
  8
dim
100
AcDbCircle
 10
228.569778423
 20
36.60000000000001
 30
0.0
 40
0.7500000000000033
100
AcDbArc
 50
132.8334280660008
 51
156.4218215220008
  0
ARC
  5
75E
330
1F
100
AcDbEntity
  8
dim
100
AcDbCircle
 10
228.569778423
 20
16.70000000000002
 30
0.0
 40
0.7500000000000061
100
AcDbArc
 50
203.578178478
 51
216.869897646
  0
ARC
  5
75F
330
1F
100
AcDbEntity
  8
dim
100
AcDbCircle
 10
228.569778423
 20
16.70000000000002
 30
0.0
 40
0.75
100
AcDbArc
 50
323.1301023539996
 51
336.4218215219997
  0
LINE
  5
760
330
1F
100
AcDbEntity
  8
dim
100
AcDbLine
 10
229.233103381
 20
16.35000000000001
 30
0.0
 11
233.12
 21
16.35000000000001
 31
0.0
  0
LINE
  5
761
330
1F
100
AcDbEntity
  8
dim
100
AcDbLine
 10
227.02
 20
16.35000000000001
 30
0.0
 11
227.906453465
 21
16.35000000000001
 31
0.0
  0
ARC
  5
762
330
1F
100
AcDbEntity
  8
dim
100
AcDbCircle
 10
227.02
 20
16.85000000000001
 30
0.0
 40
0.5000000000000133
100
AcDbArc
 50
244.1580672369985
 51
269.9999999999985
  0
LINE
  5
763
330
1F
100
AcDbEntity
  8
dim
100
AcDbLine
 10
229.57
 20
16.40000000000002
 30
0.0
 11
229.57
 21
16.35000000000001
 31
0.0
  0
LINE
  5
764
330
1F
100
AcDbEntity
  8
dim
100
AcDbLine
 10
230.57
 20
16.40000000000002
 30
0.0
 11
230.57
 21
16.35000000000001
 31
0.0
  0
ARC
  5
765
330
1F
100
AcDbEntity
  8
dim
100
AcDbCircle
 10
233.12
 20
16.85000000000001
 30
0.0
 40
0.5
100
AcDbArc
 50
270.0
 51
295.841932763
  0
LINE
  5
766
330
1F
100
AcDbEntity
  8
dim
100
AcDbLine
 10
224.57
 20
16.25000000000001
 30
0.0
 11
245.67
 21
16.25000000000001
 31
0.0
  0
LINE
  5
767
330
1F
100
AcDbEntity
  8
dim
100
AcDbLine
 10
244.57
 20
37.15000000000002
 30
0.0
 11
224.57
 21
37.15000000000002
 31
0.0
  0
LINE
  5
768
330
1F
100
AcDbEntity
  8
dim
100
AcDbLine
 10
225.421010127
 20
36.90000000000002
 30
0.0
 11
224.67
 21
36.14898987300002
 31
0.0
  0
LINE
  5
769
330
1F
100
AcDbEntity
  8
dim
100
AcDbLine
 10
224.67
 20
34.73477631100002
 30
0.0
 11
226.835223689
 21
36.90000000000002
 31
0.0
  0
LINE
  5
76A
330
1F
100
AcDbEntity
  8
dim
100
AcDbLine
 10
228.249437252
 20
36.90000000000002
 30
0.0
 11
224.67
 21
33.32056274800001
 31
0.0
  0
LINE
  5
76B
330
1F
100
AcDbEntity
  8
dim
100
AcDbLine
 10
224.67
 20
31.90634918600001
 30
0.0
 11
229.663650814
 21
36.90000000000002
 31
0.0
  0
LINE
  5
76C
330
1F
100
AcDbEntity
  8
dim
100
AcDbLine
 10
231.077864376
 20
36.90000000000002
 30
0.0
 11
224.67
 21
30.49213562400001
 31
0.0
  0
LINE
  5
76D
330
1F
100
AcDbEntity
  8
dim
100
AcDbLine
 10
224.67
 20
29.07792206100001
 30
0.0
 11
232.492077939
 21
36.90000000000002
 31
0.0
  0
LINE
  5
76E
330
1F
100
AcDbEntity
  8
dim
100
AcDbLine
 10
233.906291501
 20
36.90000000000002
 30
0.0
 11
224.67
 21
27.66370849900001
 31
0.0
  0
LINE
  5
76F
330
1F
100
AcDbEntity
  8
dim
100
AcDbLine
 10
224.67
 20
26.24949493700001
 30
0.0
 11
235.320505063
 21
36.90000000000002
 31
0.0
  0
LINE
  5
770
330
1F
100
AcDbEntity
  8
dim
100
AcDbLine
 10
236.734718626
 20
36.90000000000002
 30
0.0
 11
224.67
 21
24.83528137400002
 31
0.0
  0
LINE
  5
771
330
1F
100
AcDbEntity
  8
dim
100
AcDbLine
 10
224.67
 20
23.42106781200002
 30
0.0
 11
238.148932188
 21
36.90000000000002
 31
0.0
  0
LINE
  5
772
330
1F
100
AcDbEntity
  8
dim
100
AcDbLine
 10
239.563145751
 20
36.90000000000002
 30
0.0
 11
224.67
 21
22.00685424900001
 31
0.0
  0
LINE
  5
773
330
1F
100
AcDbEntity
  8
dim
100
AcDbLine
 10
224.67
 20
20.59264068700001
 30
0.0
 11
240.977359313
 21
36.90000000000002
 31
0.0
  0
LINE
  5
774
330
1F
100
AcDbEntity
  8
dim
100
AcDbLine
 10
242.391572875
 20
36.90000000000002
 30
0.0
 11
224.67
 21
19.17842712500001
 31
0.0
  0
LINE
  5
775
330
1F
100
AcDbEntity
  8
dim
100
AcDbLine
 10
224.67
 20
17.76421356200001
 30
0.0
 11
243.805786438
 21
36.90000000000002
 31
0.0
  0
LINE
  5
776
330
1F
100
AcDbEntity
  8
dim
100
AcDbLine
 10
245.22
 20
36.90000000000002
 30
0.0
 11
224.842331601
 21
16.52233160100002
 31
0.0
  0
LINE
  5
777
330
1F
100
AcDbEntity
  8
dim
100
AcDbLine
 10
226.134213562
 20
16.40000000000002
 30
0.0
 11
245.27
 21
35.53578643800002
 31
0.0
  0
LINE
  5
778
330
1F
100
AcDbEntity
  8
dim
100
AcDbLine
 10
245.27
 20
34.12157287500001
 30
0.0
 11
227.548427125
 21
16.40000000000002
 31
0.0
  0
LINE
  5
779
330
1F
100
AcDbEntity
  8
dim
100
AcDbLine
 10
228.962640687
 20
16.40000000000002
 30
0.0
 11
245.27
 21
32.70735931300001
 31
0.0
  0
LINE
  5
77A
330
1F
100
AcDbEntity
  8
dim
100
AcDbLine
 10
245.27
 20
31.29314575100001
 30
0.0
 11
230.376854249
 21
16.40000000000002
 31
0.0
  0
LINE
  5
77B
330
1F
100
AcDbEntity
  8
dim
100
AcDbLine
 10
231.791067812
 20
16.40000000000002
 30
0.0
 11
245.27
 21
29.87893218800001
 31
0.0
  0
LINE
  5
77C
330
1F
100
AcDbEntity
  8
dim
100
AcDbLine
 10
245.27
 20
28.46471862600002
 30
0.0
 11
233.205281374
 21
16.40000000000002
 31
0.0
  0
LINE
  5
77D
330
1F
100
AcDbEntity
  8
dim
100
AcDbLine
 10
234.619494937
 20
16.40000000000002
 30
0.0
 11
245.27
 21
27.05050506300002
 31
0.0
  0
LINE
  5
77E
330
1F
100
AcDbEntity
  8
dim
100
AcDbLine
 10
245.27
 20
25.63629150100002
 30
0.0
 11
236.033708499
 21
16.40000000000002
 31
0.0
  0
LINE
  5
77F
330
1F
100
AcDbEntity
  8
dim
100
AcDbLine
 10
237.447922061
 20
16.40000000000002
 30
0.0
 11
245.27
 21
24.22207793900002
 31
0.0
  0
LINE
  5
780
330
1F
100
AcDbEntity
  8
dim
100
AcDbLine
 10
245.27
 20
22.80786437600001
 30
0.0
 11
238.862135624
 21
16.40000000000002
 31
0.0
  0
LINE
  5
781
330
1F
100
AcDbEntity
  8
dim
100
AcDbLine
 10
240.276349186
 20
16.40000000000002
 30
0.0
 11
245.27
 21
21.39365081400001
 31
0.0
  0
LINE
  5
782
330
1F
100
AcDbEntity
  8
dim
100
AcDbLine
 10
245.27
 20
19.97943725200001
 30
0.0
 11
241.690562748
 21
16.40000000000002
 31
0.0
  0
LINE
  5
783
330
1F
100
AcDbEntity
  8
dim
100
AcDbLine
 10
243.104776311
 20
16.40000000000002
 30
0.0
 11
245.27
 21
18.56522368900002
 31
0.0
  0
LINE
  5
784
330
1F
100
AcDbEntity
  8
dim
100
AcDbLine
 10
245.27
 20
17.15101012700002
 30
0.0
 11
244.518989873
 21
16.40000000000002
 31
0.0
  0
LINE
  5
785
330
1F
100
AcDbEntity
  8
dim
100
AcDbLine
 10
246.27
 20
16.35000000000001
 30
0.0
 11
271.5700000000001
 21
16.35000000000001
 31
0.0
  0
TEXT
  5
786
330
1F
100
AcDbEntity
  8
dim
100
AcDbText
 10
239.97
 20
53.00000000000001
 30
0.0
 40
5.0
  1
■端子カバーを閉じた状態
  7
title1
100
AcDbText
  0
ARC
  5
787
330
1F
100
AcDbEntity
  8
dim
100
AcDbCircle
 10
215.97
 20
47.00000000000001
 30
0.0
 40
3.0
100
AcDbArc
 50
90.0
 51
180.0
  0
ARC
  5
788
330
1F
100
AcDbEntity
  8
dim
100
AcDbCircle
 10
329.97
 20
47.00000000000001
 30
0.0
 40
3.0
100
AcDbArc
 50
0.0
 51
90.0
  0
LINE
  5
789
330
1F
100
AcDbEntity
  8
dim
100
AcDbLine
 10
332.97
 20
3.000000000000014
 30
0.0
 11
332.97
 21
47.00000000000001
 31
0.0
  0
ARC
  5
78A
330
1F
100
AcDbEntity
  8
dim
100
AcDbCircle
 10
329.97
 20
3.000000000000014
 30
0.0
 40
3.0
100
AcDbArc
 50
270.0
 51
0.0
  0
LINE
  5
78B
330
1F
100
AcDbEntity
  8
dim
100
AcDbLine
 10
329.97
 20
50.00000000000001
 30
0.0
 11
215.97
 21
50.00000000000001
 31
0.0
  0
ARC
  5
78C
330
1F
100
AcDbEntity
  8
dim
100
AcDbCircle
 10
215.97
 20
3.000000000000014
 30
0.0
 40
3.0
100
AcDbArc
 50
180.0
 51
270.0
  0
LINE
  5
78D
330
1F
100
AcDbEntity
  8
dim
100
AcDbLine
 10
212.97
 20
47.00000000000001
 30
0.0
 11
212.97
 21
3.000000000000014
 31
0.0
  0
LINE
  5
78E
330
1F
100
AcDbEntity
  8
dim
100
AcDbLine
 10
215.97
 20
0.0000000000000142
 30
0.0
 11
329.97
 21
0.0000000000000142
 31
0.0
  0
VIEWPORT
  5
40
330
73
100
AcDbEntity
 67
     1
  8
0
100
AcDbViewport
 10
7.8
 20
4.5
 30
0.0
 40
15.64
 41
9.0
 68
     1
 69
     1
 12
6.0
 22
4.5
 13
0.0
 23
0.0
 14
0.5
 24
0.5
 15
0.5
 25
0.5
 16
0.0
 26
0.0
 36
1.0
 17
0.0
 27
0.0
 37
0.0
 42
50.0
 43
0.0
 44
0.0
 45
12.0
 50
0.0
 51
0.0
 72
   100
 90
   557152
  1

281
     0
 71
     1
 74
     0
110
0.0
120
0.0
130
0.0
111
1.0
121
0.0
131
0.0
112
0.0
122
1.0
132
0.0
 79
     0
146
0.0
  0
ENDSEC
  0
SECTION
  2
OBJECTS
  0
DICTIONARY
  5
C
330
0
100
AcDbDictionary
281
     1
  3
ACAD_COLOR
350
6C
  3
ACAD_GROUP
350
D
  3
ACAD_LAYOUT
350
1A
  3
ACAD_MATERIAL
350
6B
  3
ACAD_MLEADERSTYLE
350
7BB
  3
ACAD_MLINESTYLE
350
17
  3
ACAD_PLOTSETTINGS
350
19
  3
ACAD_PLOTSTYLENAME
350
E
  3
ACAD_SCALELIST
350
99
  3
ACAD_TABLESTYLE
350
92
  3
ACDBHEADERROUNDTRIPXREC
350
7BE
  3
AcDbVariableDictionary
350
59
  3
DWGPROPS
350
7C1
  0
DICTIONARY
  5
6C
102
{ACAD_REACTORS
330
C
102
}
330
C
100
AcDbDictionary
281
     1
  0
DICTIONARY
  5
D
102
{ACAD_REACTORS
330
C
102
}
330
C
100
AcDbDictionary
281
     1
  0
DICTIONARY
  5
1A
102
{ACAD_REACTORS
330
C
102
}
330
C
100
AcDbDictionary
281
     1
  3
Layout1
350
74
  3
Layout2
350
37
  3
Model
350
22
  0
DICTIONARY
  5
6B
102
{ACAD_REACTORS
330
C
102
}
330
C
100
AcDbDictionary
281
     1
  0
DICTIONARY
  5
7BB
102
{ACAD_REACTORS
330
C
102
}
330
C
100
AcDbDictionary
281
     1
  0
DICTIONARY
  5
17
102
{ACAD_REACTORS
330
C
102
}
330
C
100
AcDbDictionary
281
     1
  3
Standard
350
18
  0
DICTIONARY
  5
19
102
{ACAD_REACTORS
330
C
102
}
330
C
100
AcDbDictionary
281
     1
  0
ACDBDICTIONARYWDFLT
  5
E
102
{ACAD_REACTORS
330
C
102
}
330
C
100
AcDbDictionary
281
     1
  3
Normal
350
F
100
AcDbDictionaryWithDefault
340
F
  0
DICTIONARY
  5
99
102
{ACAD_REACTORS
330
C
102
}
330
C
100
AcDbDictionary
281
     1
  3
A0
350
794
  3
A1
350
795
  3
A2
350
796
  3
A3
350
797
  3
A4
350
798
  3
A5
350
799
  3
A6
350
79A
  3
A7
350
79B
  3
A8
350
79C
  3
A9
350
79D
  3
B0
350
79E
  3
B1
350
79F
  3
B2
350
7A0
  3
B3
350
7A1
  3
B4
350
7A2
  3
B5
350
7A3
  3
B6
350
7A4
  3
B7
350
7A5
  3
B8
350
7A6
  3
B9
350
7A7
  3
C0
350
7A8
  3
C1
350
7A9
  3
C2
350
7AA
  3
C3
350
7AB
  3
C4
350
7AC
  3
C5
350
7AD
  3
C6
350
7AE
  3
C7
350
7AF
  3
C8
350
7B0
  3
C9
350
7B1
  3
D0
350
7B2
  3
D1
350
7B3
  3
D2
350
7B4
  0
DICTIONARY
  5
92
102
{ACAD_REACTORS
330
C
102
}
330
C
100
AcDbDictionary
281
     1
  0
DICTIONARY
  5
7BE
102
{ACAD_REACTORS
330
C
102
}
330
C
100
AcDbDictionary
281
     1
  3
COLORDICT
350
7BF
  3
MATERIALDICT
350
7C0
  0
DICTIONARY
  5
59
102
{ACAD_REACTORS
330
C
102
}
330
C
100
AcDbDictionary
281
     1
  3
CTABLESTYLE
350
98
  3
DIMASSOC
350
5A
  3
HIDETEXT
350
5E
  3
PSOLHEIGHT
350
7BD
  3
PSOLWIDTH
350
7BC
  0
XRECORD
  5
7C1
102
{ACAD_REACTORS
330
C
102
}
330
C
100
AcDbXrecord
280
     1
  1
DWGPROPS COOKIE
  2

  3

  4

  6

  7

  8
tsuchiya
  9

300
=
301
=
302
=
303
=
304
=
305
=
306
=
307
=
308
=
309
=
 40
0.0
 41
2454474.282761493
 42
2456077.009263484
  1

 90
        0
  0
LAYOUT
  5
74
102
{ACAD_REACTORS
330
1A
102
}
330
1A
100
AcDbPlotSettings
  1

  2
\\ADSCCNDC1\hq601xrx1
  4

  6

 40
0.0
 41
0.0
 42
0.0
 43
0.0
 44
0.0
 45
0.0
 46
0.0
 47
0.0
 48
0.0
 49
0.0
140
0.0
141
0.0
142
1.0
143
1.0
 70
   688
 72
     0
 73
     0
 74
     5
  7

 75
    16
147
1.0
148
0.0
149
0.0
100
AcDbLayout
  1
Layout1
 70
     1
 71
     1
 10
0.0
 20
0.0
 11
420.0
 21
297.0
 12
0.0
 22
0.0
 32
0.0
 14
0.0
 24
0.0
 34
0.0
 15
0.0
 25
0.0
 35
0.0
146
0.0
 13
0.0
 23
0.0
 33
0.0
 16
1.0
 26
0.0
 36
0.0
 17
0.0
 27
1.0
 37
0.0
 76
     0
330
7B8
331
3E
  0
LAYOUT
  5
37
102
{ACAD_REACTORS
330
1A
102
}
330
1A
100
AcDbPlotSettings
  1

  2
none_device
  4
Letter_(8.50_x_11.00_Inches)
  6

 40
6.35
 41
6.35
 42
6.35000508
 43
6.35000508
 44
215.9
 45
279.4
 46
0.0
 47
0.0
 48
0.0
 49
0.0
140
0.0
141
0.0
142
1.0
143
1.0
 70
   688
 72
     1
 73
     0
 74
     5
  7

 75
    16
147
1.0
148
0.0
149
0.0
100
AcDbLayout
  1
Layout2
 70
     1
 71
     2
 10
0.0
 20
0.0
 11
420.0
 21
297.0
 12
0.0
 22
0.0
 32
0.0
 14
0.0
 24
0.0
 34
0.0
 15
420.0
 25
297.0
 35
0.0
146
0.0
 13
0.0
 23
0.0
 33
0.0
 16
1.0
 26
0.0
 36
0.0
 17
0.0
 27
1.0
 37
0.0
 76
     0
330
73
331
40
  0
LAYOUT
  5
22
102
{ACAD_REACTORS
330
1A
102
}
330
1A
100
AcDbPlotSettings
  1

  2
none_device
  4
Letter_(8.50_x_11.00_Inches)
  6

 40
6.35
 41
6.35
 42
6.35000508
 43
6.35000508
 44
215.9
 45
279.4
 46
0.0
 47
0.0
 48
0.0
 49
0.0
140
0.0
141
0.0
142
1.0
143
1.0
 70
 11952
 72
     1
 73
     0
 74
     2
  7

 75
    16
147
1.0
148
0.1311165230791651
149
0.096403374003771
100
AcDbLayout
  1
Model
 70
     1
 71
     0
 10
0.0
 20
0.0
 11
420.0
 21
297.0
 12
0.0
 22
0.0
 32
0.0
 14
0.0
 24
0.0
 34
0.0
 15
332.97
 25
199.2125
 35
0.0
146
0.0
 13
0.0
 23
0.0
 33
0.0
 16
1.0
 26
0.0
 36
0.0
 17
0.0
 27
1.0
 37
0.0
 76
     0
330
1F
331
97
  0
MLINESTYLE
  5
18
102
{ACAD_REACTORS
330
17
102
}
330
17
100
AcDbMlineStyle
  2
STANDARD
 70
     0
  3

 62
   256
 51
90.0
 52
90.0
 71
     2
 49
0.5
 62
   256
  6
BYLAYER
 49
-0.5
 62
   256
  6
BYLAYER
  0
ACDBPLACEHOLDER
  5
F
102
{ACAD_REACTORS
330
E
102
}
330
E
  0
SCALE
  5
794
102
{ACAD_REACTORS
330
99
102
}
330
99
100
AcDbScale
 70
     0
300
1:1
140
1.0
141
1.0
290
     1
  0
SCALE
  5
795
102
{ACAD_REACTORS
330
99
102
}
330
99
100
AcDbScale
 70
     0
300
1:2
140
1.0
141
2.0
290
     0
  0
SCALE
  5
796
102
{ACAD_REACTORS
330
99
102
}
330
99
100
AcDbScale
 70
     0
300
1:4
140
1.0
141
4.0
290
     0
  0
SCALE
  5
797
102
{ACAD_REACTORS
330
99
102
}
330
99
100
AcDbScale
 70
     0
300
1:5
140
1.0
141
5.0
290
     0
  0
SCALE
  5
798
102
{ACAD_REACTORS
330
99
102
}
330
99
100
AcDbScale
 70
     0
300
1:8
140
1.0
141
8.0
290
     0
  0
SCALE
  5
799
102
{ACAD_REACTORS
330
99
102
}
330
99
100
AcDbScale
 70
     0
300
1:10
140
1.0
141
10.0
290
     0
  0
SCALE
  5
79A
102
{ACAD_REACTORS
330
99
102
}
330
99
100
AcDbScale
 70
     0
300
1:16
140
1.0
141
16.0
290
     0
  0
SCALE
  5
79B
102
{ACAD_REACTORS
330
99
102
}
330
99
100
AcDbScale
 70
     0
300
1:20
140
1.0
141
20.0
290
     0
  0
SCALE
  5
79C
102
{ACAD_REACTORS
330
99
102
}
330
99
100
AcDbScale
 70
     0
300
1:30
140
1.0
141
30.0
290
     0
  0
SCALE
  5
79D
102
{ACAD_REACTORS
330
99
102
}
330
99
100
AcDbScale
 70
     0
300
1:40
140
1.0
141
40.0
290
     0
  0
SCALE
  5
79E
102
{ACAD_REACTORS
330
99
102
}
330
99
100
AcDbScale
 70
     0
300
1:50
140
1.0
141
50.0
290
     0
  0
SCALE
  5
79F
102
{ACAD_REACTORS
330
99
102
}
330
99
100
AcDbScale
 70
     0
300
1:100
140
1.0
141
100.0
290
     0
  0
SCALE
  5
7A0
102
{ACAD_REACTORS
330
99
102
}
330
99
100
AcDbScale
 70
     0
300
2:1
140
2.0
141
1.0
290
     0
  0
SCALE
  5
7A1
102
{ACAD_REACTORS
330
99
102
}
330
99
100
AcDbScale
 70
     0
300
4:1
140
4.0
141
1.0
290
     0
  0
SCALE
  5
7A2
102
{ACAD_REACTORS
330
99
102
}
330
99
100
AcDbScale
 70
     0
300
8:1
140
8.0
141
1.0
290
     0
  0
SCALE
  5
7A3
102
{ACAD_REACTORS
330
99
102
}
330
99
100
AcDbScale
 70
     0
300
10:1
140
10.0
141
1.0
290
     0
  0
SCALE
  5
7A4
102
{ACAD_REACTORS
330
99
102
}
330
99
100
AcDbScale
 70
     0
300
100:1
140
100.0
141
1.0
290
     0
  0
SCALE
  5
7A5
102
{ACAD_REACTORS
330
99
102
}
330
99
100
AcDbScale
 70
     0
300
1/128" = 1'-0"
140
0.0078125
141
12.0
290
     0
  0
SCALE
  5
7A6
102
{ACAD_REACTORS
330
99
102
}
330
99
100
AcDbScale
 70
     0
300
1/64" = 1'-0"
140
0.015625
141
12.0
290
     0
  0
SCALE
  5
7A7
102
{ACAD_REACTORS
330
99
102
}
330
99
100
AcDbScale
 70
     0
300
1/32" = 1'-0"
140
0.03125
141
12.0
290
     0
  0
SCALE
  5
7A8
102
{ACAD_REACTORS
330
99
102
}
330
99
100
AcDbScale
 70
     0
300
1/16" = 1'-0"
140
0.0625
141
12.0
290
     0
  0
SCALE
  5
7A9
102
{ACAD_REACTORS
330
99
102
}
330
99
100
AcDbScale
 70
     0
300
3/32" = 1'-0"
140
0.09375
141
12.0
290
     0
  0
SCALE
  5
7AA
102
{ACAD_REACTORS
330
99
102
}
330
99
100
AcDbScale
 70
     0
300
1/8" = 1'-0"
140
0.125
141
12.0
290
     0
  0
SCALE
  5
7AB
102
{ACAD_REACTORS
330
99
102
}
330
99
100
AcDbScale
 70
     0
300
3/16" = 1'-0"
140
0.1875
141
12.0
290
     0
  0
SCALE
  5
7AC
102
{ACAD_REACTORS
330
99
102
}
330
99
100
AcDbScale
 70
     0
300
1/4" = 1'-0"
140
0.25
141
12.0
290
     0
  0
SCALE
  5
7AD
102
{ACAD_REACTORS
330
99
102
}
330
99
100
AcDbScale
 70
     0
300
3/8" = 1'-0"
140
0.375
141
12.0
290
     0
  0
SCALE
  5
7AE
102
{ACAD_REACTORS
330
99
102
}
330
99
100
AcDbScale
 70
     0
300
1/2" = 1'-0"
140
0.5
141
12.0
290
     0
  0
SCALE
  5
7AF
102
{ACAD_REACTORS
330
99
102
}
330
99
100
AcDbScale
 70
     0
300
3/4" = 1'-0"
140
0.75
141
12.0
290
     0
  0
SCALE
  5
7B0
102
{ACAD_REACTORS
330
99
102
}
330
99
100
AcDbScale
 70
     0
300
1" = 1'-0"
140
1.0
141
12.0
290
     0
  0
SCALE
  5
7B1
102
{ACAD_REACTORS
330
99
102
}
330
99
100
AcDbScale
 70
     0
300
1-1/2" = 1'-0"
140
1.5
141
12.0
290
     0
  0
SCALE
  5
7B2
102
{ACAD_REACTORS
330
99
102
}
330
99
100
AcDbScale
 70
     0
300
3" = 1'-0"
140
3.0
141
12.0
290
     0
  0
SCALE
  5
7B3
102
{ACAD_REACTORS
330
99
102
}
330
99
100
AcDbScale
 70
     0
300
6" = 1'-0"
140
6.0
141
12.0
290
     0
  0
SCALE
  5
7B4
102
{ACAD_REACTORS
330
99
102
}
330
99
100
AcDbScale
 70
     0
300
1'-0" = 1'-0"
140
12.0
141
12.0
290
     0
  0
XRECORD
  5
7BF
102
{ACAD_REACTORS
330
7BE
102
}
330
7BE
100
AcDbXrecord
280
     1
340
6C
  0
XRECORD
  5
7C0
102
{ACAD_REACTORS
330
7BE
102
}
330
7BE
100
AcDbXrecord
280
     1
340
6B
  0
DICTIONARYVAR
  5
98
102
{ACAD_REACTORS
330
59
102
}
330
59
100
DictionaryVariables
280
     0
  1
STANDARD
  0
DICTIONARYVAR
  5
5A
102
{ACAD_REACTORS
330
59
102
}
330
59
100
DictionaryVariables
280
     0
  1
2
  0
DICTIONARYVAR
  5
5E
102
{ACAD_REACTORS
330
59
102
}
330
59
100
DictionaryVariables
280
     0
  1
1
  0
DICTIONARYVAR
  5
7BD
102
{ACAD_REACTORS
330
59
102
}
330
59
100
DictionaryVariables
280
     0
  1
80.000000
  0
DICTIONARYVAR
  5
7BC
102
{ACAD_REACTORS
330
59
102
}
330
59
100
DictionaryVariables
280
     0
  1
5.000000
  0
ENDSEC
  0
EOF
