  0
SECTION
  2
HEADER
  9
$ACADVER
  1
AC1015
  9
$ACADMAINTVER
 70
     6
  9
$DWGCODEPAGE
  3
ANSI_932
  9
$INSBASE
 10
0.0
 20
0.0
 30
0.0
  9
$EXTMIN
 10
81.70000000000001
 20
130.4929699300733
 30
0.0
  9
$EXTMAX
 10
168.5
 20
235.8
 30
0.3
  9
$LIMMIN
 10
0.0
 20
0.0
  9
$LIMMAX
 10
12.0
 20
9.0
  9
$ORTHOMODE
 70
     0
  9
$REGENMODE
 70
     1
  9
$FILLMODE
 70
     1
  9
$QTEXTMODE
 70
     0
  9
$MIRRTEXT
 70
     1
  9
$LTSCALE
 40
1.0
  9
$ATTMODE
 70
     1
  9
$TEXTSIZE
 40
0.2
  9
$TRACEWID
 40
0.05
  9
$TEXTSTYLE
  7
STANDARD
  9
$CLAYER
  8
0
  9
$CELTYPE
  6
CONTINUOUS
  9
$CECOLOR
 62
   256
  9
$CELTSCALE
 40
1.0
  9
$DISPSILH
 70
     0
  9
$DIMSCALE
 40
1.0
  9
$DIMASZ
 40
0.18
  9
$DIMEXO
 40
0.0625
  9
$DIMDLI
 40
0.38
  9
$DIMRND
 40
0.0
  9
$DIMDLE
 40
0.0
  9
$DIMEXE
 40
0.18
  9
$DIMTP
 40
0.0
  9
$DIMTM
 40
0.0
  9
$DIMTXT
 40
0.18
  9
$DIMCEN
 40
0.09
  9
$DIMTSZ
 40
0.0
  9
$DIMTOL
 70
     0
  9
$DIMLIM
 70
     0
  9
$DIMTIH
 70
     1
  9
$DIMTOH
 70
     1
  9
$DIMSE1
 70
     0
  9
$DIMSE2
 70
     0
  9
$DIMTAD
 70
     0
  9
$DIMZIN
 70
     0
  9
$DIMBLK
  1

  9
$DIMASO
 70
     1
  9
$DIMSHO
 70
     1
  9
$DIMPOST
  1

  9
$DIMAPOST
  1

  9
$DIMALT
 70
     0
  9
$DIMALTD
 70
     2
  9
$DIMALTF
 40
25.4
  9
$DIMLFAC
 40
1.0
  9
$DIMTOFL
 70
     0
  9
$DIMTVP
 40
0.0
  9
$DIMTIX
 70
     0
  9
$DIMSOXD
 70
     0
  9
$DIMSAH
 70
     0
  9
$DIMBLK1
  1

  9
$DIMBLK2
  1

  9
$DIMSTYLE
  2
STANDARD
  9
$DIMCLRD
 70
     0
  9
$DIMCLRE
 70
     0
  9
$DIMCLRT
 70
     0
  9
$DIMTFAC
 40
1.0
  9
$DIMGAP
 40
0.09
  9
$DIMJUST
 70
     0
  9
$DIMSD1
 70
     0
  9
$DIMSD2
 70
     0
  9
$DIMTOLJ
 70
     1
  9
$DIMTZIN
 70
     0
  9
$DIMALTZ
 70
     0
  9
$DIMALTTZ
 70
     0
  9
$DIMUPT
 70
     0
  9
$DIMDEC
 70
     4
  9
$DIMTDEC
 70
     4
  9
$DIMALTU
 70
     2
  9
$DIMALTTD
 70
     2
  9
$DIMTXSTY
  7
STANDARD
  9
$DIMAUNIT
 70
     0
  9
$DIMADEC
 70
     0
  9
$DIMALTRND
 40
0.0
  9
$DIMAZIN
 70
     0
  9
$DIMDSEP
 70
    46
  9
$DIMATFIT
 70
     3
  9
$DIMFRAC
 70
     0
  9
$DIMLDRBLK
  1

  9
$DIMLUNIT
 70
     2
  9
$DIMLWD
 70
    -2
  9
$DIMLWE
 70
    -2
  9
$DIMTMOVE
 70
     0
  9
$LUNITS
 70
     2
  9
$LUPREC
 70
     4
  9
$SKETCHINC
 40
0.1
  9
$FILLETRAD
 40
0.0
  9
$AUNITS
 70
     0
  9
$AUPREC
 70
     0
  9
$MENU
  1
.
  9
$ELEVATION
 40
0.0
  9
$PELEVATION
 40
0.0
  9
$THICKNESS
 40
0.0
  9
$LIMCHECK
 70
     0
  9
$CHAMFERA
 40
0.0
  9
$CHAMFERB
 40
0.0
  9
$CHAMFERC
 40
0.0
  9
$CHAMFERD
 40
0.0
  9
$SKPOLY
 70
     0
  9
$TDCREATE
 40
2452153.738348923
  9
$TDUCREATE
 40
2452153.363348923
  9
$TDUPDATE
 40
2452719.560096991
  9
$TDUUPDATE
 40
2452719.185096990
  9
$TDINDWG
 40
0.0027870949
  9
$TDUSRTIMER
 40
0.0027864005
  9
$USRTIMER
 70
     1
  9
$ANGBASE
 50
0.0
  9
$ANGDIR
 70
     0
  9
$PDMODE
 70
     0
  9
$PDSIZE
 40
0.0
  9
$PLINEWID
 40
0.0
  9
$SPLFRAME
 70
     0
  9
$SPLINETYPE
 70
     6
  9
$SPLINESEGS
 70
     8
  9
$HANDSEED
  5
3E4
  9
$SURFTAB1
 70
     6
  9
$SURFTAB2
 70
     6
  9
$SURFTYPE
 70
     6
  9
$SURFU
 70
     6
  9
$SURFV
 70
     6
  9
$UCSBASE
  2

  9
$UCSNAME
  2

  9
$UCSORG
 10
0.0
 20
0.0
 30
0.0
  9
$UCSXDIR
 10
1.0
 20
0.0
 30
0.0
  9
$UCSYDIR
 10
0.0
 20
1.0
 30
0.0
  9
$UCSORTHOREF
  2

  9
$UCSORTHOVIEW
 70
     0
  9
$UCSORGTOP
 10
0.0
 20
0.0
 30
0.0
  9
$UCSORGBOTTOM
 10
0.0
 20
0.0
 30
0.0
  9
$UCSORGLEFT
 10
0.0
 20
0.0
 30
0.0
  9
$UCSORGRIGHT
 10
0.0
 20
0.0
 30
0.0
  9
$UCSORGFRONT
 10
0.0
 20
0.0
 30
0.0
  9
$UCSORGBACK
 10
0.0
 20
0.0
 30
0.0
  9
$PUCSBASE
  2

  9
$PUCSNAME
  2

  9
$PUCSORG
 10
0.0
 20
0.0
 30
0.0
  9
$PUCSXDIR
 10
1.0
 20
0.0
 30
0.0
  9
$PUCSYDIR
 10
0.0
 20
1.0
 30
0.0
  9
$PUCSORTHOREF
  2

  9
$PUCSORTHOVIEW
 70
     0
  9
$PUCSORGTOP
 10
0.0
 20
0.0
 30
0.0
  9
$PUCSORGBOTTOM
 10
0.0
 20
0.0
 30
0.0
  9
$PUCSORGLEFT
 10
0.0
 20
0.0
 30
0.0
  9
$PUCSORGRIGHT
 10
0.0
 20
0.0
 30
0.0
  9
$PUCSORGFRONT
 10
0.0
 20
0.0
 30
0.0
  9
$PUCSORGBACK
 10
0.0
 20
0.0
 30
0.0
  9
$USERI1
 70
     0
  9
$USERI2
 70
     0
  9
$USERI3
 70
     0
  9
$USERI4
 70
     0
  9
$USERI5
 70
     0
  9
$USERR1
 40
0.0
  9
$USERR2
 40
0.0
  9
$USERR3
 40
0.0
  9
$USERR4
 40
0.0
  9
$USERR5
 40
0.0
  9
$WORLDVIEW
 70
     1
  9
$SHADEDGE
 70
     3
  9
$SHADEDIF
 70
    70
  9
$TILEMODE
 70
     1
  9
$MAXACTVP
 70
    64
  9
$PINSBASE
 10
0.0
 20
0.0
 30
0.0
  9
$PLIMCHECK
 70
     0
  9
$PEXTMIN
 10
1.000000000000000E+20
 20
1.000000000000000E+20
 30
1.000000000000000E+20
  9
$PEXTMAX
 10
-1.000000000000000E+20
 20
-1.000000000000000E+20
 30
-1.000000000000000E+20
  9
$PLIMMIN
 10
0.0
 20
0.0
  9
$PLIMMAX
 10
12.0
 20
9.0
  9
$UNITMODE
 70
     0
  9
$VISRETAIN
 70
     1
  9
$PLINEGEN
 70
     0
  9
$PSLTSCALE
 70
     1
  9
$TREEDEPTH
 70
  3020
  9
$CMLSTYLE
  2
Standard
  9
$CMLJUST
 70
     0
  9
$CMLSCALE
 40
1.0
  9
$PROXYGRAPHICS
 70
     1
  9
$MEASUREMENT
 70
     0
  9
$CELWEIGHT
370
    -1
  9
$ENDCAPS
280
     0
  9
$JOINSTYLE
280
     0
  9
$LWDISPLAY
290
     0
  9
$INSUNITS
 70
     0
  9
$HYPERLINKBASE
  1

  9
$STYLESHEET
  1

  9
$XEDIT
290
     1
  9
$CEPSNTYPE
380
     0
  9
$PSTYLEMODE
290
     1
  9
$FINGERPRINTGUID
  2
{AA778815-64BF-4E0F-8506-DA0ED0B51E99}
  9
$VERSIONGUID
  2
{E9A3011C-9934-4AB2-9D4C-E285ABE3F862}
  9
$EXTNAMES
290
     1
  9
$PSVPSCALE
 40
0.0
  9
$OLESTARTUP
290
     0
  0
ENDSEC
  0
SECTION
  2
CLASSES
  0
CLASS
  1
ACDBDICTIONARYWDFLT
  2
AcDbDictionaryWithDefault
  3
AutoCAD 2000
 90
        0
280
     0
281
     0
  0
CLASS
  1
ACDBPLACEHOLDER
  2
AcDbPlaceHolder
  3
AutoCAD 2000
 90
        0
280
     0
281
     0
  0
CLASS
  1
LAYOUT
  2
AcDbLayout
  3
AutoCAD 2000
 90
        0
280
     0
281
     0
  0
ENDSEC
  0
SECTION
  2
TABLES
  0
TABLE
  2
VPORT
  5
1F5
330
0
100
AcDbSymbolTable
 70
     2
  0
VPORT
  5
3E3
330
1F5
100
AcDbSymbolTableRecord
100
AcDbViewportTableRecord
  2
*Active
 70
     0
 10
0.0
 20
0.0
 11
1.0
 21
1.0
 12
132.0824014668008
 22
171.2935961581395
 13
0.0
 23
0.0
 14
1.0
 24
1.0
 15
0.0
 25
0.0
 16
0.0
 26
0.0
 36
1.0
 17
0.0
 27
0.0
 37
0.0
 40
107.2227538131286
 41
1.853118712273641
 42
50.0
 43
0.0
 44
0.0
 50
0.0
 51
0.0
 71
     0
 72
   100
 73
     1
 74
     1
 75
     0
 76
     0
 77
     0
 78
     0
281
     0
 65
     1
110
0.0
120
0.0
130
0.0
111
1.0
121
0.0
131
0.0
112
0.0
122
1.0
132
0.0
 79
     0
146
0.0
  0
ENDTAB
  0
TABLE
  2
LTYPE
  5
1F2
330
0
100
AcDbSymbolTable
 70
     1
  0
LTYPE
  5
200
330
1F2
100
AcDbSymbolTableRecord
100
AcDbLinetypeTableRecord
  2
ByBlock
 70
     0
  3

 72
    65
 73
     0
 40
0.0
  0
LTYPE
  5
201
330
1F2
100
AcDbSymbolTableRecord
100
AcDbLinetypeTableRecord
  2
ByLayer
 70
     0
  3

 72
    65
 73
     0
 40
0.0
  0
LTYPE
  5
202
330
1F2
100
AcDbSymbolTableRecord
100
AcDbLinetypeTableRecord
  2
CONTINUOUS
 70
     0
  3
Solid line
 72
    65
 73
     0
 40
0.0
  0
ENDTAB
  0
TABLE
  2
LAYER
  5
1EF
330
0
100
AcDbSymbolTable
 70
   128
  0
LAYER
  5
1FD
330
1EF
100
AcDbSymbolTableRecord
100
AcDbLayerTableRecord
  2
0
 70
     0
 62
     7
  6
CONTINUOUS
370
    -3
390
1FC
  0
LAYER
  5
210
330
1EF
100
AcDbSymbolTableRecord
100
AcDbLayerTableRecord
  2
1
 70
     0
 62
     7
  6
CONTINUOUS
370
    -3
390
1FC
  0
LAYER
  5
211
330
1EF
100
AcDbSymbolTableRecord
100
AcDbLayerTableRecord
  2
2
 70
     0
 62
     7
  6
CONTINUOUS
370
    -3
390
1FC
  0
LAYER
  5
212
330
1EF
100
AcDbSymbolTableRecord
100
AcDbLayerTableRecord
  2
3
 70
     0
 62
     7
  6
CONTINUOUS
370
    -3
390
1FC
  0
LAYER
  5
213
330
1EF
100
AcDbSymbolTableRecord
100
AcDbLayerTableRecord
  2
4
 70
     0
 62
     7
  6
CONTINUOUS
370
    -3
390
1FC
  0
LAYER
  5
214
330
1EF
100
AcDbSymbolTableRecord
100
AcDbLayerTableRecord
  2
5
 70
     0
 62
     7
  6
CONTINUOUS
370
    -3
390
1FC
  0
LAYER
  5
215
330
1EF
100
AcDbSymbolTableRecord
100
AcDbLayerTableRecord
  2
6
 70
     0
 62
     7
  6
CONTINUOUS
370
    -3
390
1FC
  0
LAYER
  5
216
330
1EF
100
AcDbSymbolTableRecord
100
AcDbLayerTableRecord
  2
7
 70
     0
 62
     7
  6
CONTINUOUS
370
    -3
390
1FC
  0
LAYER
  5
217
330
1EF
100
AcDbSymbolTableRecord
100
AcDbLayerTableRecord
  2
8
 70
     0
 62
     7
  6
CONTINUOUS
370
    -3
390
1FC
  0
LAYER
  5
218
330
1EF
100
AcDbSymbolTableRecord
100
AcDbLayerTableRecord
  2
9
 70
     0
 62
     7
  6
CONTINUOUS
370
    -3
390
1FC
  0
LAYER
  5
219
330
1EF
100
AcDbSymbolTableRecord
100
AcDbLayerTableRecord
  2
10
 70
     0
 62
     7
  6
CONTINUOUS
370
    -3
390
1FC
  0
LAYER
  5
21A
330
1EF
100
AcDbSymbolTableRecord
100
AcDbLayerTableRecord
  2
11
 70
     0
 62
     7
  6
CONTINUOUS
370
    -3
390
1FC
  0
LAYER
  5
21B
330
1EF
100
AcDbSymbolTableRecord
100
AcDbLayerTableRecord
  2
12
 70
     0
 62
     7
  6
CONTINUOUS
370
    -3
390
1FC
  0
LAYER
  5
21C
330
1EF
100
AcDbSymbolTableRecord
100
AcDbLayerTableRecord
  2
13
 70
     0
 62
     7
  6
CONTINUOUS
370
    -3
390
1FC
  0
LAYER
  5
21D
330
1EF
100
AcDbSymbolTableRecord
100
AcDbLayerTableRecord
  2
14
 70
     0
 62
     7
  6
CONTINUOUS
370
    -3
390
1FC
  0
LAYER
  5
21E
330
1EF
100
AcDbSymbolTableRecord
100
AcDbLayerTableRecord
  2
15
 70
     0
 62
     7
  6
CONTINUOUS
370
    -3
390
1FC
  0
LAYER
  5
21F
330
1EF
100
AcDbSymbolTableRecord
100
AcDbLayerTableRecord
  2
16
 70
     0
 62
     7
  6
CONTINUOUS
370
    -3
390
1FC
  0
LAYER
  5
220
330
1EF
100
AcDbSymbolTableRecord
100
AcDbLayerTableRecord
  2
17
 70
     0
 62
     7
  6
CONTINUOUS
370
    -3
390
1FC
  0
LAYER
  5
221
330
1EF
100
AcDbSymbolTableRecord
100
AcDbLayerTableRecord
  2
18
 70
     0
 62
     7
  6
CONTINUOUS
370
    -3
390
1FC
  0
LAYER
  5
222
330
1EF
100
AcDbSymbolTableRecord
100
AcDbLayerTableRecord
  2
19
 70
     0
 62
     7
  6
CONTINUOUS
370
    -3
390
1FC
  0
LAYER
  5
223
330
1EF
100
AcDbSymbolTableRecord
100
AcDbLayerTableRecord
  2
20
 70
     0
 62
     7
  6
CONTINUOUS
370
    -3
390
1FC
  0
LAYER
  5
224
330
1EF
100
AcDbSymbolTableRecord
100
AcDbLayerTableRecord
  2
21
 70
     0
 62
     7
  6
CONTINUOUS
370
    -3
390
1FC
  0
LAYER
  5
225
330
1EF
100
AcDbSymbolTableRecord
100
AcDbLayerTableRecord
  2
22
 70
     0
 62
     7
  6
CONTINUOUS
370
    -3
390
1FC
  0
LAYER
  5
226
330
1EF
100
AcDbSymbolTableRecord
100
AcDbLayerTableRecord
  2
23
 70
     0
 62
     7
  6
CONTINUOUS
370
    -3
390
1FC
  0
LAYER
  5
227
330
1EF
100
AcDbSymbolTableRecord
100
AcDbLayerTableRecord
  2
24
 70
     0
 62
     7
  6
CONTINUOUS
370
    -3
390
1FC
  0
LAYER
  5
228
330
1EF
100
AcDbSymbolTableRecord
100
AcDbLayerTableRecord
  2
25
 70
     0
 62
     7
  6
CONTINUOUS
370
    -3
390
1FC
  0
LAYER
  5
229
330
1EF
100
AcDbSymbolTableRecord
100
AcDbLayerTableRecord
  2
26
 70
     0
 62
     7
  6
CONTINUOUS
370
    -3
390
1FC
  0
LAYER
  5
22A
330
1EF
100
AcDbSymbolTableRecord
100
AcDbLayerTableRecord
  2
27
 70
     0
 62
     7
  6
CONTINUOUS
370
    -3
390
1FC
  0
LAYER
  5
22B
330
1EF
100
AcDbSymbolTableRecord
100
AcDbLayerTableRecord
  2
28
 70
     0
 62
     7
  6
CONTINUOUS
370
    -3
390
1FC
  0
LAYER
  5
22C
330
1EF
100
AcDbSymbolTableRecord
100
AcDbLayerTableRecord
  2
29
 70
     0
 62
     7
  6
CONTINUOUS
370
    -3
390
1FC
  0
LAYER
  5
22D
330
1EF
100
AcDbSymbolTableRecord
100
AcDbLayerTableRecord
  2
30
 70
     0
 62
     7
  6
CONTINUOUS
370
    -3
390
1FC
  0
LAYER
  5
22E
330
1EF
100
AcDbSymbolTableRecord
100
AcDbLayerTableRecord
  2
31
 70
     0
 62
     7
  6
CONTINUOUS
370
    -3
390
1FC
  0
LAYER
  5
22F
330
1EF
100
AcDbSymbolTableRecord
100
AcDbLayerTableRecord
  2
32
 70
     0
 62
     7
  6
CONTINUOUS
370
    -3
390
1FC
  0
LAYER
  5
230
330
1EF
100
AcDbSymbolTableRecord
100
AcDbLayerTableRecord
  2
33
 70
     0
 62
     7
  6
CONTINUOUS
370
    -3
390
1FC
  0
LAYER
  5
231
330
1EF
100
AcDbSymbolTableRecord
100
AcDbLayerTableRecord
  2
34
 70
     0
 62
     7
  6
CONTINUOUS
370
    -3
390
1FC
  0
LAYER
  5
232
330
1EF
100
AcDbSymbolTableRecord
100
AcDbLayerTableRecord
  2
35
 70
     0
 62
     7
  6
CONTINUOUS
370
    -3
390
1FC
  0
LAYER
  5
233
330
1EF
100
AcDbSymbolTableRecord
100
AcDbLayerTableRecord
  2
36
 70
     0
 62
     7
  6
CONTINUOUS
370
    -3
390
1FC
  0
LAYER
  5
234
330
1EF
100
AcDbSymbolTableRecord
100
AcDbLayerTableRecord
  2
37
 70
     0
 62
     7
  6
CONTINUOUS
370
    -3
390
1FC
  0
LAYER
  5
235
330
1EF
100
AcDbSymbolTableRecord
100
AcDbLayerTableRecord
  2
38
 70
     0
 62
     7
  6
CONTINUOUS
370
    -3
390
1FC
  0
LAYER
  5
236
330
1EF
100
AcDbSymbolTableRecord
100
AcDbLayerTableRecord
  2
39
 70
     0
 62
     7
  6
CONTINUOUS
370
    -3
390
1FC
  0
LAYER
  5
237
330
1EF
100
AcDbSymbolTableRecord
100
AcDbLayerTableRecord
  2
40
 70
     0
 62
     7
  6
CONTINUOUS
370
    -3
390
1FC
  0
LAYER
  5
238
330
1EF
100
AcDbSymbolTableRecord
100
AcDbLayerTableRecord
  2
41
 70
     0
 62
     7
  6
CONTINUOUS
370
    -3
390
1FC
  0
LAYER
  5
239
330
1EF
100
AcDbSymbolTableRecord
100
AcDbLayerTableRecord
  2
42
 70
     0
 62
     7
  6
CONTINUOUS
370
    -3
390
1FC
  0
LAYER
  5
23A
330
1EF
100
AcDbSymbolTableRecord
100
AcDbLayerTableRecord
  2
43
 70
     0
 62
     7
  6
CONTINUOUS
370
    -3
390
1FC
  0
LAYER
  5
23B
330
1EF
100
AcDbSymbolTableRecord
100
AcDbLayerTableRecord
  2
44
 70
     0
 62
     7
  6
CONTINUOUS
370
    -3
390
1FC
  0
LAYER
  5
23C
330
1EF
100
AcDbSymbolTableRecord
100
AcDbLayerTableRecord
  2
45
 70
     0
 62
     7
  6
CONTINUOUS
370
    -3
390
1FC
  0
LAYER
  5
23D
330
1EF
100
AcDbSymbolTableRecord
100
AcDbLayerTableRecord
  2
46
 70
     0
 62
     7
  6
CONTINUOUS
370
    -3
390
1FC
  0
LAYER
  5
23E
330
1EF
100
AcDbSymbolTableRecord
100
AcDbLayerTableRecord
  2
47
 70
     0
 62
     7
  6
CONTINUOUS
370
    -3
390
1FC
  0
LAYER
  5
23F
330
1EF
100
AcDbSymbolTableRecord
100
AcDbLayerTableRecord
  2
48
 70
     0
 62
     7
  6
CONTINUOUS
370
    -3
390
1FC
  0
LAYER
  5
240
330
1EF
100
AcDbSymbolTableRecord
100
AcDbLayerTableRecord
  2
49
 70
     0
 62
     7
  6
CONTINUOUS
370
    -3
390
1FC
  0
LAYER
  5
241
330
1EF
100
AcDbSymbolTableRecord
100
AcDbLayerTableRecord
  2
50
 70
     0
 62
     7
  6
CONTINUOUS
370
    -3
390
1FC
  0
LAYER
  5
242
330
1EF
100
AcDbSymbolTableRecord
100
AcDbLayerTableRecord
  2
51
 70
     0
 62
     7
  6
CONTINUOUS
370
    -3
390
1FC
  0
LAYER
  5
243
330
1EF
100
AcDbSymbolTableRecord
100
AcDbLayerTableRecord
  2
52
 70
     0
 62
     7
  6
CONTINUOUS
370
    -3
390
1FC
  0
LAYER
  5
244
330
1EF
100
AcDbSymbolTableRecord
100
AcDbLayerTableRecord
  2
53
 70
     0
 62
     7
  6
CONTINUOUS
370
    -3
390
1FC
  0
LAYER
  5
245
330
1EF
100
AcDbSymbolTableRecord
100
AcDbLayerTableRecord
  2
54
 70
     0
 62
     7
  6
CONTINUOUS
370
    -3
390
1FC
  0
LAYER
  5
246
330
1EF
100
AcDbSymbolTableRecord
100
AcDbLayerTableRecord
  2
55
 70
     0
 62
     7
  6
CONTINUOUS
370
    -3
390
1FC
  0
LAYER
  5
247
330
1EF
100
AcDbSymbolTableRecord
100
AcDbLayerTableRecord
  2
56
 70
     0
 62
     7
  6
CONTINUOUS
370
    -3
390
1FC
  0
LAYER
  5
248
330
1EF
100
AcDbSymbolTableRecord
100
AcDbLayerTableRecord
  2
57
 70
     0
 62
     7
  6
CONTINUOUS
370
    -3
390
1FC
  0
LAYER
  5
249
330
1EF
100
AcDbSymbolTableRecord
100
AcDbLayerTableRecord
  2
58
 70
     0
 62
     7
  6
CONTINUOUS
370
    -3
390
1FC
  0
LAYER
  5
24A
330
1EF
100
AcDbSymbolTableRecord
100
AcDbLayerTableRecord
  2
59
 70
     0
 62
     7
  6
CONTINUOUS
370
    -3
390
1FC
  0
LAYER
  5
24B
330
1EF
100
AcDbSymbolTableRecord
100
AcDbLayerTableRecord
  2
60
 70
     0
 62
     7
  6
CONTINUOUS
370
    -3
390
1FC
  0
LAYER
  5
24C
330
1EF
100
AcDbSymbolTableRecord
100
AcDbLayerTableRecord
  2
61
 70
     0
 62
     7
  6
CONTINUOUS
370
    -3
390
1FC
  0
LAYER
  5
24D
330
1EF
100
AcDbSymbolTableRecord
100
AcDbLayerTableRecord
  2
62
 70
     0
 62
     7
  6
CONTINUOUS
370
    -3
390
1FC
  0
LAYER
  5
24E
330
1EF
100
AcDbSymbolTableRecord
100
AcDbLayerTableRecord
  2
63
 70
     0
 62
     7
  6
CONTINUOUS
370
    -3
390
1FC
  0
LAYER
  5
24F
330
1EF
100
AcDbSymbolTableRecord
100
AcDbLayerTableRecord
  2
64
 70
     0
 62
     7
  6
CONTINUOUS
370
    -3
390
1FC
  0
LAYER
  5
250
330
1EF
100
AcDbSymbolTableRecord
100
AcDbLayerTableRecord
  2
65
 70
     0
 62
     7
  6
CONTINUOUS
370
    -3
390
1FC
  0
LAYER
  5
251
330
1EF
100
AcDbSymbolTableRecord
100
AcDbLayerTableRecord
  2
66
 70
     0
 62
     7
  6
CONTINUOUS
370
    -3
390
1FC
  0
LAYER
  5
252
330
1EF
100
AcDbSymbolTableRecord
100
AcDbLayerTableRecord
  2
67
 70
     0
 62
     7
  6
CONTINUOUS
370
    -3
390
1FC
  0
LAYER
  5
253
330
1EF
100
AcDbSymbolTableRecord
100
AcDbLayerTableRecord
  2
68
 70
     0
 62
     7
  6
CONTINUOUS
370
    -3
390
1FC
  0
LAYER
  5
254
330
1EF
100
AcDbSymbolTableRecord
100
AcDbLayerTableRecord
  2
69
 70
     0
 62
     7
  6
CONTINUOUS
370
    -3
390
1FC
  0
LAYER
  5
255
330
1EF
100
AcDbSymbolTableRecord
100
AcDbLayerTableRecord
  2
70
 70
     0
 62
     7
  6
CONTINUOUS
370
    -3
390
1FC
  0
LAYER
  5
256
330
1EF
100
AcDbSymbolTableRecord
100
AcDbLayerTableRecord
  2
71
 70
     0
 62
     7
  6
CONTINUOUS
370
    -3
390
1FC
  0
LAYER
  5
257
330
1EF
100
AcDbSymbolTableRecord
100
AcDbLayerTableRecord
  2
72
 70
     0
 62
     7
  6
CONTINUOUS
370
    -3
390
1FC
  0
LAYER
  5
258
330
1EF
100
AcDbSymbolTableRecord
100
AcDbLayerTableRecord
  2
73
 70
     0
 62
     7
  6
CONTINUOUS
370
    -3
390
1FC
  0
LAYER
  5
259
330
1EF
100
AcDbSymbolTableRecord
100
AcDbLayerTableRecord
  2
74
 70
     0
 62
     7
  6
CONTINUOUS
370
    -3
390
1FC
  0
LAYER
  5
25A
330
1EF
100
AcDbSymbolTableRecord
100
AcDbLayerTableRecord
  2
75
 70
     0
 62
     7
  6
CONTINUOUS
370
    -3
390
1FC
  0
LAYER
  5
25B
330
1EF
100
AcDbSymbolTableRecord
100
AcDbLayerTableRecord
  2
76
 70
     0
 62
     7
  6
CONTINUOUS
370
    -3
390
1FC
  0
LAYER
  5
25C
330
1EF
100
AcDbSymbolTableRecord
100
AcDbLayerTableRecord
  2
77
 70
     0
 62
     7
  6
CONTINUOUS
370
    -3
390
1FC
  0
LAYER
  5
25D
330
1EF
100
AcDbSymbolTableRecord
100
AcDbLayerTableRecord
  2
78
 70
     0
 62
     7
  6
CONTINUOUS
370
    -3
390
1FC
  0
LAYER
  5
25E
330
1EF
100
AcDbSymbolTableRecord
100
AcDbLayerTableRecord
  2
79
 70
     0
 62
     7
  6
CONTINUOUS
370
    -3
390
1FC
  0
LAYER
  5
25F
330
1EF
100
AcDbSymbolTableRecord
100
AcDbLayerTableRecord
  2
80
 70
     0
 62
     7
  6
CONTINUOUS
370
    -3
390
1FC
  0
LAYER
  5
260
330
1EF
100
AcDbSymbolTableRecord
100
AcDbLayerTableRecord
  2
81
 70
     0
 62
     7
  6
CONTINUOUS
370
    -3
390
1FC
  0
LAYER
  5
261
330
1EF
100
AcDbSymbolTableRecord
100
AcDbLayerTableRecord
  2
82
 70
     0
 62
     7
  6
CONTINUOUS
370
    -3
390
1FC
  0
LAYER
  5
262
330
1EF
100
AcDbSymbolTableRecord
100
AcDbLayerTableRecord
  2
83
 70
     0
 62
     7
  6
CONTINUOUS
370
    -3
390
1FC
  0
LAYER
  5
263
330
1EF
100
AcDbSymbolTableRecord
100
AcDbLayerTableRecord
  2
84
 70
     0
 62
     7
  6
CONTINUOUS
370
    -3
390
1FC
  0
LAYER
  5
264
330
1EF
100
AcDbSymbolTableRecord
100
AcDbLayerTableRecord
  2
85
 70
     0
 62
     7
  6
CONTINUOUS
370
    -3
390
1FC
  0
LAYER
  5
265
330
1EF
100
AcDbSymbolTableRecord
100
AcDbLayerTableRecord
  2
86
 70
     0
 62
     7
  6
CONTINUOUS
370
    -3
390
1FC
  0
LAYER
  5
266
330
1EF
100
AcDbSymbolTableRecord
100
AcDbLayerTableRecord
  2
87
 70
     0
 62
     7
  6
CONTINUOUS
370
    -3
390
1FC
  0
LAYER
  5
267
330
1EF
100
AcDbSymbolTableRecord
100
AcDbLayerTableRecord
  2
88
 70
     0
 62
     7
  6
CONTINUOUS
370
    -3
390
1FC
  0
LAYER
  5
268
330
1EF
100
AcDbSymbolTableRecord
100
AcDbLayerTableRecord
  2
89
 70
     0
 62
     7
  6
CONTINUOUS
370
    -3
390
1FC
  0
LAYER
  5
269
330
1EF
100
AcDbSymbolTableRecord
100
AcDbLayerTableRecord
  2
90
 70
     0
 62
     7
  6
CONTINUOUS
370
    -3
390
1FC
  0
LAYER
  5
26A
330
1EF
100
AcDbSymbolTableRecord
100
AcDbLayerTableRecord
  2
91
 70
     0
 62
     7
  6
CONTINUOUS
370
    -3
390
1FC
  0
LAYER
  5
26B
330
1EF
100
AcDbSymbolTableRecord
100
AcDbLayerTableRecord
  2
92
 70
     0
 62
     7
  6
CONTINUOUS
370
    -3
390
1FC
  0
LAYER
  5
26C
330
1EF
100
AcDbSymbolTableRecord
100
AcDbLayerTableRecord
  2
93
 70
     0
 62
     7
  6
CONTINUOUS
370
    -3
390
1FC
  0
LAYER
  5
26D
330
1EF
100
AcDbSymbolTableRecord
100
AcDbLayerTableRecord
  2
94
 70
     0
 62
     7
  6
CONTINUOUS
370
    -3
390
1FC
  0
LAYER
  5
26E
330
1EF
100
AcDbSymbolTableRecord
100
AcDbLayerTableRecord
  2
95
 70
     0
 62
     7
  6
CONTINUOUS
370
    -3
390
1FC
  0
LAYER
  5
26F
330
1EF
100
AcDbSymbolTableRecord
100
AcDbLayerTableRecord
  2
96
 70
     0
 62
     7
  6
CONTINUOUS
370
    -3
390
1FC
  0
LAYER
  5
270
330
1EF
100
AcDbSymbolTableRecord
100
AcDbLayerTableRecord
  2
97
 70
     0
 62
     7
  6
CONTINUOUS
370
    -3
390
1FC
  0
LAYER
  5
271
330
1EF
100
AcDbSymbolTableRecord
100
AcDbLayerTableRecord
  2
98
 70
     0
 62
     7
  6
CONTINUOUS
370
    -3
390
1FC
  0
LAYER
  5
272
330
1EF
100
AcDbSymbolTableRecord
100
AcDbLayerTableRecord
  2
99
 70
     0
 62
     7
  6
CONTINUOUS
370
    -3
390
1FC
  0
LAYER
  5
273
330
1EF
100
AcDbSymbolTableRecord
100
AcDbLayerTableRecord
  2
100
 70
     0
 62
     7
  6
CONTINUOUS
370
    -3
390
1FC
  0
LAYER
  5
274
330
1EF
100
AcDbSymbolTableRecord
100
AcDbLayerTableRecord
  2
101
 70
     0
 62
     7
  6
CONTINUOUS
370
    -3
390
1FC
  0
LAYER
  5
275
330
1EF
100
AcDbSymbolTableRecord
100
AcDbLayerTableRecord
  2
102
 70
     0
 62
     7
  6
CONTINUOUS
370
    -3
390
1FC
  0
LAYER
  5
276
330
1EF
100
AcDbSymbolTableRecord
100
AcDbLayerTableRecord
  2
103
 70
     0
 62
     7
  6
CONTINUOUS
370
    -3
390
1FC
  0
LAYER
  5
277
330
1EF
100
AcDbSymbolTableRecord
100
AcDbLayerTableRecord
  2
104
 70
     0
 62
     7
  6
CONTINUOUS
370
    -3
390
1FC
  0
LAYER
  5
278
330
1EF
100
AcDbSymbolTableRecord
100
AcDbLayerTableRecord
  2
105
 70
     0
 62
     7
  6
CONTINUOUS
370
    -3
390
1FC
  0
LAYER
  5
279
330
1EF
100
AcDbSymbolTableRecord
100
AcDbLayerTableRecord
  2
106
 70
     0
 62
     7
  6
CONTINUOUS
370
    -3
390
1FC
  0
LAYER
  5
27A
330
1EF
100
AcDbSymbolTableRecord
100
AcDbLayerTableRecord
  2
107
 70
     0
 62
     7
  6
CONTINUOUS
370
    -3
390
1FC
  0
LAYER
  5
27B
330
1EF
100
AcDbSymbolTableRecord
100
AcDbLayerTableRecord
  2
108
 70
     0
 62
     7
  6
CONTINUOUS
370
    -3
390
1FC
  0
LAYER
  5
27C
330
1EF
100
AcDbSymbolTableRecord
100
AcDbLayerTableRecord
  2
109
 70
     0
 62
     7
  6
CONTINUOUS
370
    -3
390
1FC
  0
LAYER
  5
27D
330
1EF
100
AcDbSymbolTableRecord
100
AcDbLayerTableRecord
  2
110
 70
     0
 62
     7
  6
CONTINUOUS
370
    -3
390
1FC
  0
LAYER
  5
27E
330
1EF
100
AcDbSymbolTableRecord
100
AcDbLayerTableRecord
  2
111
 70
     0
 62
     7
  6
CONTINUOUS
370
    -3
390
1FC
  0
LAYER
  5
27F
330
1EF
100
AcDbSymbolTableRecord
100
AcDbLayerTableRecord
  2
112
 70
     0
 62
     7
  6
CONTINUOUS
370
    -3
390
1FC
  0
LAYER
  5
280
330
1EF
100
AcDbSymbolTableRecord
100
AcDbLayerTableRecord
  2
113
 70
     0
 62
     7
  6
CONTINUOUS
370
    -3
390
1FC
  0
LAYER
  5
281
330
1EF
100
AcDbSymbolTableRecord
100
AcDbLayerTableRecord
  2
114
 70
     0
 62
     7
  6
CONTINUOUS
370
    -3
390
1FC
  0
LAYER
  5
282
330
1EF
100
AcDbSymbolTableRecord
100
AcDbLayerTableRecord
  2
115
 70
     0
 62
     7
  6
CONTINUOUS
370
    -3
390
1FC
  0
LAYER
  5
283
330
1EF
100
AcDbSymbolTableRecord
100
AcDbLayerTableRecord
  2
116
 70
     0
 62
     7
  6
CONTINUOUS
370
    -3
390
1FC
  0
LAYER
  5
284
330
1EF
100
AcDbSymbolTableRecord
100
AcDbLayerTableRecord
  2
117
 70
     0
 62
     7
  6
CONTINUOUS
370
    -3
390
1FC
  0
LAYER
  5
285
330
1EF
100
AcDbSymbolTableRecord
100
AcDbLayerTableRecord
  2
118
 70
     0
 62
     7
  6
CONTINUOUS
370
    -3
390
1FC
  0
LAYER
  5
286
330
1EF
100
AcDbSymbolTableRecord
100
AcDbLayerTableRecord
  2
119
 70
     0
 62
     7
  6
CONTINUOUS
370
    -3
390
1FC
  0
LAYER
  5
287
330
1EF
100
AcDbSymbolTableRecord
100
AcDbLayerTableRecord
  2
120
 70
     0
 62
     7
  6
CONTINUOUS
370
    -3
390
1FC
  0
LAYER
  5
288
330
1EF
100
AcDbSymbolTableRecord
100
AcDbLayerTableRecord
  2
121
 70
     0
 62
     7
  6
CONTINUOUS
370
    -3
390
1FC
  0
LAYER
  5
289
330
1EF
100
AcDbSymbolTableRecord
100
AcDbLayerTableRecord
  2
122
 70
     0
 62
     7
  6
CONTINUOUS
370
    -3
390
1FC
  0
LAYER
  5
28A
330
1EF
100
AcDbSymbolTableRecord
100
AcDbLayerTableRecord
  2
123
 70
     0
 62
     7
  6
CONTINUOUS
370
    -3
390
1FC
  0
LAYER
  5
28B
330
1EF
100
AcDbSymbolTableRecord
100
AcDbLayerTableRecord
  2
124
 70
     0
 62
     7
  6
CONTINUOUS
370
    -3
390
1FC
  0
LAYER
  5
28C
330
1EF
100
AcDbSymbolTableRecord
100
AcDbLayerTableRecord
  2
125
 70
     0
 62
     7
  6
CONTINUOUS
370
    -3
390
1FC
  0
LAYER
  5
28D
330
1EF
100
AcDbSymbolTableRecord
100
AcDbLayerTableRecord
  2
126
 70
     0
 62
     7
  6
CONTINUOUS
370
    -3
390
1FC
  0
LAYER
  5
28E
330
1EF
100
AcDbSymbolTableRecord
100
AcDbLayerTableRecord
  2
127
 70
     0
 62
     7
  6
CONTINUOUS
370
    -3
390
1FC
  0
ENDTAB
  0
TABLE
  2
STYLE
  5
1F0
330
0
100
AcDbSymbolTable
 70
     4
  0
STYLE
  5
1FE
330
1F0
100
AcDbSymbolTableRecord
100
AcDbTextStyleTableRecord
  2
STANDARD
 70
     0
 40
0.0
 41
1.0
 50
0.0
 71
     0
 42
0.2
  3
txt
  4

  0
STYLE
  5
28F
330
1F0
100
AcDbSymbolTableRecord
100
AcDbTextStyleTableRecord
  2
KANJI0
 70
     0
 40
3.0
 41
0.6
 50
0.0
 71
     0
 42
3.0
  3
txt
  4
bigfont
  0
STYLE
  5
290
330
1F0
100
AcDbSymbolTableRecord
100
AcDbTextStyleTableRecord
  2
KANJI1
 70
     0
 40
2.5
 41
0.8
 50
0.0
 71
     0
 42
2.5
  3
txt
  4
bigfont
  0
STYLE
  5
291
330
1F0
100
AcDbSymbolTableRecord
100
AcDbTextStyleTableRecord
  2
KANJI2
 70
     0
 40
2.5
 41
0.4
 50
0.0
 71
     0
 42
2.5
  3
txt
  4
bigfont
  0
ENDTAB
  0
TABLE
  2
VIEW
  5
1F3
330
0
100
AcDbSymbolTable
 70
     0
  0
ENDTAB
  0
TABLE
  2
UCS
  5
1F4
330
0
100
AcDbSymbolTable
 70
     0
  0
ENDTAB
  0
TABLE
  2
APPID
  5
1F6
330
0
100
AcDbSymbolTable
 70
     1
  0
APPID
  5
1FF
330
1F6
100
AcDbSymbolTableRecord
100
AcDbRegAppTableRecord
  2
ACAD
 70
     0
  0
ENDTAB
  0
TABLE
  2
DIMSTYLE
  5
1F7
330
0
100
AcDbSymbolTable
 70
     1
100
AcDbDimStyleTable
 71
     0
  0
DIMSTYLE
105
292
330
1F7
100
AcDbSymbolTableRecord
100
AcDbDimStyleTableRecord
  2
STANDARD
 70
     0
279
     2
340
1FE
  0
ENDTAB
  0
TABLE
  2
BLOCK_RECORD
  5
1EE
330
0
100
AcDbSymbolTable
 70
     3
  0
BLOCK_RECORD
  5
20B
330
1EE
100
AcDbSymbolTableRecord
100
AcDbBlockTableRecord
  2
*Model_Space
340
20E
  0
BLOCK_RECORD
  5
207
330
1EE
100
AcDbSymbolTableRecord
100
AcDbBlockTableRecord
  2
*Paper_Space
340
20A
  0
BLOCK_RECORD
  5
295
330
1EE
100
AcDbSymbolTableRecord
100
AcDbBlockTableRecord
  2
$MODEL_SPACE
340
0
  0
BLOCK_RECORD
  5
298
330
1EE
100
AcDbSymbolTableRecord
100
AcDbBlockTableRecord
  2
$PAPER_SPACE
340
0
  0
ENDTAB
  0
ENDSEC
  0
SECTION
  2
BLOCKS
  0
BLOCK
  5
20C
330
20B
100
AcDbEntity
  8
0
100
AcDbBlockBegin
  2
*Model_Space
 70
     0
 10
0.0
 20
0.0
 30
0.0
  3
*Model_Space
  1

  0
ENDBLK
  5
20D
330
20B
100
AcDbEntity
  8
0
100
AcDbBlockEnd
  0
BLOCK
  5
208
330
207
100
AcDbEntity
 67
     1
  8
0
100
AcDbBlockBegin
  2
*Paper_Space
 70
     0
 10
0.0
 20
0.0
 30
0.0
  3
*Paper_Space
  1

  0
ENDBLK
  5
209
330
207
100
AcDbEntity
 67
     1
  8
0
100
AcDbBlockEnd
  0
BLOCK
  5
296
330
295
100
AcDbEntity
  8
0
100
AcDbBlockBegin
  2
$MODEL_SPACE
 70
     0
 10
0.0
 20
0.0
 30
0.0
  3
$MODEL_SPACE
  1

  0
ENDBLK
  5
297
330
295
100
AcDbEntity
  8
0
100
AcDbBlockEnd
  0
BLOCK
  5
299
330
298
100
AcDbEntity
  8
0
100
AcDbBlockBegin
  2
$PAPER_SPACE
 70
     0
 10
0.0
 20
0.0
 30
0.0
  3
$PAPER_SPACE
  1

  0
ENDBLK
  5
29A
330
298
100
AcDbEntity
  8
0
100
AcDbBlockEnd
  0
ENDSEC
  0
SECTION
  2
ENTITIES
  0
LINE
  5
29B
330
20B
100
AcDbEntity
  8
0
  6
Continuous
 62
     3
100
AcDbLine
 10
98.50000000000001
 20
222.0
 30
0.0
 11
149.0
 21
222.0
 31
0.0
  0
LINE
  5
29C
330
20B
100
AcDbEntity
  8
0
  6
Continuous
 62
     3
100
AcDbLine
 10
98.50000000000001
 20
222.0
 30
0.0
 11
98.50000000000001
 21
197.0
 31
0.0
  0
LINE
  5
29D
330
20B
100
AcDbEntity
  8
0
  6
Continuous
 62
     3
100
AcDbLine
 10
98.50000000000001
 20
197.0
 30
0.0
 11
149.0
 21
197.0
 31
0.0
  0
LINE
  5
29E
330
20B
100
AcDbEntity
  8
0
  6
Continuous
 62
     3
100
AcDbLine
 10
149.0
 20
197.0
 30
0.0
 11
149.0
 21
222.0
 31
0.0
  0
LINE
  5
29F
330
20B
100
AcDbEntity
  8
0
  6
Continuous
 62
     3
100
AcDbLine
 10
98.50000000000001
 20
197.0
 30
0.0
 11
103.0
 21
197.0
 31
0.0
  0
LINE
  5
2A0
330
20B
100
AcDbEntity
  8
0
  6
Continuous
 62
     3
100
AcDbLine
 10
103.0
 20
197.0
 30
0.0
 11
103.0
 21
192.0
 31
0.0
  0
LINE
  5
2A1
330
20B
100
AcDbEntity
  8
0
  6
Continuous
 62
     3
100
AcDbLine
 10
103.4999999999999
 20
192.0
 30
0.0
 11
103.4999999999999
 21
197.0
 31
0.0
  0
LINE
  5
2A2
330
20B
100
AcDbEntity
  8
0
  6
Continuous
 62
     3
100
AcDbLine
 10
101.0
 20
197.0
 30
0.0
 11
105.4999999999999
 21
197.0
 31
0.0
  0
LINE
  5
2A3
330
20B
100
AcDbEntity
  8
0
  6
Continuous
 62
     3
100
AcDbLine
 10
105.4999999999999
 20
197.0
 30
0.0
 11
105.4999999999999
 21
192.0
 31
0.0
  0
LINE
  5
2A4
330
20B
100
AcDbEntity
  8
0
  6
Continuous
 62
     3
100
AcDbLine
 10
106.0
 20
192.0
 30
0.0
 11
106.0
 21
197.0
 31
0.0
  0
LINE
  5
2A5
330
20B
100
AcDbEntity
  8
0
  6
Continuous
 62
     3
100
AcDbLine
 10
103.4999999999999
 20
197.0
 30
0.0
 11
108.0
 21
197.0
 31
0.0
  0
LINE
  5
2A6
330
20B
100
AcDbEntity
  8
0
  6
Continuous
 62
     3
100
AcDbLine
 10
108.0
 20
197.0
 30
0.0
 11
108.0
 21
192.0
 31
0.0
  0
LINE
  5
2A7
330
20B
100
AcDbEntity
  8
0
  6
Continuous
 62
     3
100
AcDbLine
 10
108.4999999999999
 20
192.0
 30
0.0
 11
108.4999999999999
 21
197.0
 31
0.0
  0
LINE
  5
2A8
330
20B
100
AcDbEntity
  8
0
  6
Continuous
 62
     3
100
AcDbLine
 10
106.0
 20
197.0
 30
0.0
 11
110.4999999999999
 21
197.0
 31
0.0
  0
LINE
  5
2A9
330
20B
100
AcDbEntity
  8
0
  6
Continuous
 62
     3
100
AcDbLine
 10
110.4999999999999
 20
197.0
 30
0.0
 11
110.4999999999999
 21
192.0
 31
0.0
  0
LINE
  5
2AA
330
20B
100
AcDbEntity
  8
0
  6
Continuous
 62
     3
100
AcDbLine
 10
111.0
 20
192.0
 30
0.0
 11
111.0
 21
197.0
 31
0.0
  0
LINE
  5
2AB
330
20B
100
AcDbEntity
  8
0
  6
Continuous
 62
     3
100
AcDbLine
 10
108.4999999999999
 20
197.0
 30
0.0
 11
113.0
 21
197.0
 31
0.0
  0
LINE
  5
2AC
330
20B
100
AcDbEntity
  8
0
  6
Continuous
 62
     3
100
AcDbLine
 10
113.0
 20
197.0
 30
0.0
 11
113.0
 21
192.0
 31
0.0
  0
LINE
  5
2AD
330
20B
100
AcDbEntity
  8
0
  6
Continuous
 62
     3
100
AcDbLine
 10
113.5
 20
192.0
 30
0.0
 11
113.5
 21
197.0
 31
0.0
  0
LINE
  5
2AE
330
20B
100
AcDbEntity
  8
0
  6
Continuous
 62
     3
100
AcDbLine
 10
111.0
 20
197.0
 30
0.0
 11
115.5
 21
197.0
 31
0.0
  0
LINE
  5
2AF
330
20B
100
AcDbEntity
  8
0
  6
Continuous
 62
     3
100
AcDbLine
 10
115.5
 20
197.0
 30
0.0
 11
115.5
 21
192.0
 31
0.0
  0
LINE
  5
2B0
330
20B
100
AcDbEntity
  8
0
  6
Continuous
 62
     3
100
AcDbLine
 10
116.0
 20
192.0
 30
0.0
 11
116.0
 21
197.0
 31
0.0
  0
LINE
  5
2B1
330
20B
100
AcDbEntity
  8
0
  6
Continuous
 62
     3
100
AcDbLine
 10
139.5
 20
197.0
 30
0.0
 11
144.0
 21
197.0
 31
0.0
  0
LINE
  5
2B2
330
20B
100
AcDbEntity
  8
0
  6
Continuous
 62
     3
100
AcDbLine
 10
144.0
 20
197.0
 30
0.0
 11
144.0
 21
192.0
 31
0.0
  0
LINE
  5
2B3
330
20B
100
AcDbEntity
  8
0
  6
Continuous
 62
     3
100
AcDbLine
 10
144.5
 20
192.0
 30
0.0
 11
144.5
 21
197.0
 31
0.0
  0
LINE
  5
2B4
330
20B
100
AcDbEntity
  8
0
  6
Continuous
 62
     3
100
AcDbLine
 10
142.0
 20
197.0
 30
0.0
 11
146.5
 21
197.0
 31
0.0
  0
LINE
  5
2B5
330
20B
100
AcDbEntity
  8
0
  6
Continuous
 62
     3
100
AcDbLine
 10
144.5
 20
197.0
 30
0.0
 11
149.0
 21
197.0
 31
0.0
  0
LINE
  5
2B6
330
20B
100
AcDbEntity
  8
0
  6
Continuous
 62
     3
100
AcDbLine
 10
144.5
 20
197.0
 30
0.0
 11
149.0
 21
197.0
 31
0.0
  0
LINE
  5
2B7
330
20B
100
AcDbEntity
  8
0
  6
Continuous
 62
     3
100
AcDbLine
 10
144.5
 20
197.0
 30
0.0
 11
149.0
 21
197.0
 31
0.0
  0
LINE
  5
2B8
330
20B
100
AcDbEntity
  8
0
  6
Continuous
 62
     3
100
AcDbLine
 10
142.0
 20
197.0
 30
0.0
 11
149.0
 21
197.0
 31
0.0
  0
LINE
  5
2B9
330
20B
100
AcDbEntity
  8
0
  6
Continuous
 62
     3
100
AcDbLine
 10
139.5
 20
197.0
 30
0.0
 11
149.0
 21
197.0
 31
0.0
  0
LINE
  5
2BA
330
20B
100
AcDbEntity
  8
0
  6
Continuous
 62
     3
100
AcDbLine
 10
111.0
 20
197.0
 30
0.0
 11
149.0
 21
197.0
 31
0.0
  0
LINE
  5
2BB
330
20B
100
AcDbEntity
  8
0
  6
Continuous
 62
     3
100
AcDbLine
 10
108.4999999999999
 20
197.0
 30
0.0
 11
149.0
 21
197.0
 31
0.0
  0
LINE
  5
2BC
330
20B
100
AcDbEntity
  8
0
  6
Continuous
 62
     3
100
AcDbLine
 10
106.0
 20
197.0
 30
0.0
 11
149.0
 21
197.0
 31
0.0
  0
LINE
  5
2BD
330
20B
100
AcDbEntity
  8
0
  6
Continuous
 62
     3
100
AcDbLine
 10
106.0
 20
197.0
 30
0.0
 11
149.0
 21
197.0
 31
0.0
  0
LINE
  5
2BE
330
20B
100
AcDbEntity
  8
0
  6
Continuous
 62
     3
100
AcDbLine
 10
103.4999999999999
 20
197.0
 30
0.0
 11
149.0
 21
197.0
 31
0.0
  0
LINE
  5
2BF
330
20B
100
AcDbEntity
  8
0
  6
Continuous
 62
     3
100
AcDbLine
 10
103.4999999999999
 20
197.0
 30
0.0
 11
149.0
 21
197.0
 31
0.0
  0
LINE
  5
2C0
330
20B
100
AcDbEntity
  8
0
  6
Continuous
 62
     3
100
AcDbLine
 10
101.0
 20
197.0
 30
0.0
 11
149.0
 21
197.0
 31
0.0
  0
LINE
  5
2C1
330
20B
100
AcDbEntity
  8
0
  6
Continuous
 62
     3
100
AcDbLine
 10
141.5
 20
197.0
 30
0.0
 11
141.5
 21
192.0
 31
0.0
  0
LINE
  5
2C2
330
20B
100
AcDbEntity
  8
0
  6
Continuous
 62
     3
100
AcDbLine
 10
142.0
 20
192.0
 30
0.0
 11
142.0
 21
197.0
 31
0.0
  0
LINE
  5
2C3
330
20B
100
AcDbEntity
  8
0
  6
Continuous
 62
     3
100
AcDbLine
 10
139.5
 20
197.0
 30
0.0
 11
144.0
 21
197.0
 31
0.0
  0
LINE
  5
2C4
330
20B
100
AcDbEntity
  8
0
  6
Continuous
 62
     3
100
AcDbLine
 10
134.4999999999997
 20
197.0
 30
0.0
 11
139.0
 21
197.0
 31
0.0
  0
LINE
  5
2C5
330
20B
100
AcDbEntity
  8
0
  6
Continuous
 62
     3
100
AcDbLine
 10
139.0
 20
197.0
 30
0.0
 11
139.0
 21
192.0
 31
0.0
  0
LINE
  5
2C6
330
20B
100
AcDbEntity
  8
0
  6
Continuous
 62
     3
100
AcDbLine
 10
139.5
 20
192.0
 30
0.0
 11
139.5
 21
197.0
 31
0.0
  0
LINE
  5
2C7
330
20B
100
AcDbEntity
  8
0
  6
Continuous
 62
     3
100
AcDbLine
 10
137.0
 20
197.0
 30
0.0
 11
141.5
 21
197.0
 31
0.0
  0
LINE
  5
2C8
330
20B
100
AcDbEntity
  8
0
  6
Continuous
 62
     3
100
AcDbLine
 10
136.4999999999997
 20
197.0
 30
0.0
 11
136.4999999999997
 21
192.0
 31
0.0
  0
LINE
  5
2C9
330
20B
100
AcDbEntity
  8
0
  6
Continuous
 62
     3
100
AcDbLine
 10
137.0
 20
192.0
 30
0.0
 11
137.0
 21
197.0
 31
0.0
  0
LINE
  5
2CA
330
20B
100
AcDbEntity
  8
0
  6
Continuous
 62
     3
100
AcDbLine
 10
134.4999999999997
 20
197.0
 30
0.0
 11
139.0
 21
197.0
 31
0.0
  0
LINE
  5
2CB
330
20B
100
AcDbEntity
  8
0
  6
Continuous
 62
     5
100
AcDbLine
 10
98.50000000000001
 20
223.0
 30
0.0
 11
98.50000000000001
 21
234.0
 31
0.0
  0
LINE
  5
2CC
330
20B
100
AcDbEntity
  8
0
  6
Continuous
 62
     5
100
AcDbLine
 10
98.50000000000001
 20
232.0
 30
0.0
 11
100.9148145659999
 21
231.352952387
 31
0.0
  0
LINE
  5
2CD
330
20B
100
AcDbEntity
  8
0
  6
Continuous
 62
     5
100
AcDbLine
 10
98.50000000000001
 20
232.0
 30
0.0
 11
100.9148145659999
 21
232.6470476129999
 31
0.0
  0
LINE
  5
2CE
330
20B
100
AcDbEntity
  8
0
  6
Continuous
 62
     5
100
AcDbLine
 10
98.50000000000001
 20
232.0
 30
0.0
 11
149.0
 21
232.0
 31
0.0
  0
LINE
  5
2CF
330
20B
100
AcDbEntity
  8
0
  6
Continuous
 62
     5
100
AcDbLine
 10
149.0
 20
232.0
 30
0.0
 11
146.585185434
 21
232.6470476129999
 31
0.0
  0
LINE
  5
2D0
330
20B
100
AcDbEntity
  8
0
  6
Continuous
 62
     5
100
AcDbLine
 10
149.0
 20
232.0
 30
0.0
 11
146.585185434
 21
231.352952387
 31
0.0
  0
LINE
  5
2D1
330
20B
100
AcDbEntity
  8
0
  6
Continuous
 62
     5
100
AcDbLine
 10
149.0
 20
223.0
 30
0.0
 11
149.0
 21
234.0
 31
0.0
  0
TEXT
  5
2D2
330
20B
100
AcDbEntity
  8
0
  6
Continuous
 62
     3
100
AcDbText
 10
119.7
 20
233.0
 30
0.3
 40
3.0
  1
５０.５
 41
0.6
  7
KANJI0
100
AcDbText
  0
LINE
  5
2D3
330
20B
100
AcDbEntity
  8
0
  6
Continuous
 62
     5
100
AcDbLine
 10
97.5
 20
222.0
 30
0.3
 11
83.49999999999999
 21
222.0
 31
0.3
  0
LINE
  5
2D4
330
20B
100
AcDbEntity
  8
0
  6
Continuous
 62
     5
100
AcDbLine
 10
85.5
 20
222.0
 30
0.0
 11
84.852952387
 21
219.585185434
 31
0.0
  0
LINE
  5
2D5
330
20B
100
AcDbEntity
  8
0
  6
Continuous
 62
     5
100
AcDbLine
 10
85.5
 20
222.0
 30
0.0
 11
86.147047613
 21
219.585185434
 31
0.0
  0
LINE
  5
2D6
330
20B
100
AcDbEntity
  8
0
  6
Continuous
 62
     5
100
AcDbLine
 10
85.5
 20
222.0
 30
0.0
 11
85.5
 21
197.0
 31
0.0
  0
LINE
  5
2D7
330
20B
100
AcDbEntity
  8
0
  6
Continuous
 62
     5
100
AcDbLine
 10
85.5
 20
197.0
 30
0.0
 11
86.147047613
 21
199.4148145659997
 31
0.0
  0
LINE
  5
2D8
330
20B
100
AcDbEntity
  8
0
  6
Continuous
 62
     5
100
AcDbLine
 10
85.5
 20
197.0
 30
0.0
 11
84.852952387
 21
199.4148145659997
 31
0.0
  0
LINE
  5
2D9
330
20B
100
AcDbEntity
  8
0
  6
Continuous
 62
     5
100
AcDbLine
 10
97.5
 20
197.0
 30
0.0
 11
83.49999999999999
 21
197.0
 31
0.0
  0
TEXT
  5
2DA
330
20B
100
AcDbEntity
  8
0
  6
Continuous
 62
     3
100
AcDbText
 10
84.50000000000001
 20
207.55
 30
0.3
 40
3.0
  1
２５
 50
90.0
 41
0.6
  7
KANJI0
100
AcDbText
  0
LINE
  5
2DB
330
20B
100
AcDbEntity
  8
0
  6
Continuous
 62
     5
100
AcDbLine
 10
150.0
 20
197.0
 30
0.3
 11
161.0
 21
197.0
 31
0.3
  0
LINE
  5
2DC
330
20B
100
AcDbEntity
  8
0
  6
Continuous
 62
     5
100
AcDbLine
 10
159.0
 20
197.0
 30
0.0
 11
158.352952387
 21
194.585185434
 31
0.0
  0
LINE
  5
2DD
330
20B
100
AcDbEntity
  8
0
  6
Continuous
 62
     5
100
AcDbLine
 10
159.0
 20
197.0
 30
0.0
 11
159.6470476129999
 21
194.585185434
 31
0.0
  0
LINE
  5
2DE
330
20B
100
AcDbEntity
  8
0
  6
Continuous
 62
     5
100
AcDbLine
 10
159.0
 20
197.0
 30
0.0
 11
159.0
 21
192.0
 31
0.0
  0
LINE
  5
2DF
330
20B
100
AcDbEntity
  8
0
  6
Continuous
 62
     5
100
AcDbLine
 10
159.0
 20
192.0
 30
0.0
 11
159.6470476129999
 21
194.414814566
 31
0.0
  0
LINE
  5
2E0
330
20B
100
AcDbEntity
  8
0
  6
Continuous
 62
     5
100
AcDbLine
 10
159.0
 20
192.0
 30
0.0
 11
158.352952387
 21
194.414814566
 31
0.0
  0
LINE
  5
2E1
330
20B
100
AcDbEntity
  8
0
  6
Continuous
 62
     5
100
AcDbLine
 10
145.5
 20
192.0
 30
0.0
 11
161.0
 21
192.0
 31
0.0
  0
TEXT
  5
2E2
330
20B
100
AcDbEntity
  8
0
  6
Continuous
 62
     3
100
AcDbText
 10
165.5
 20
188.3499999999999
 30
0.3
 40
3.0
  1
５　ＭＩＮ　
 50
90.0
 41
0.6
  7
KANJI0
100
AcDbText
  0
LINE
  5
2E3
330
20B
100
AcDbEntity
  8
0
  6
Continuous
 62
     5
100
AcDbLine
 10
98.50000000000001
 20
196.0
 30
0.3
 11
98.50000000000001
 21
185.0999999999999
 31
0.3
  0
LINE
  5
2E4
330
20B
100
AcDbEntity
  8
0
  6
Continuous
 62
     5
100
AcDbLine
 10
103.2499999999999
 20
191.0
 30
0.0
 11
103.2499999999999
 21
185.0999999999999
 31
0.0
  0
TEXT
  5
2E5
330
20B
100
AcDbEntity
  8
0
  6
Continuous
 62
     3
100
AcDbText
 10
91.575
 20
188.15
 30
0.3
 40
3.0
  1
４.８
 41
0.6
  7
KANJI0
100
AcDbText
  0
LINE
  5
2E6
330
20B
100
AcDbEntity
  8
0
  6
Continuous
 62
     5
100
AcDbLine
 10
103.2499999999999
 20
190.0
 30
0.3
 11
103.2499999999999
 21
185.1999999999999
 31
0.3
  0
LINE
  5
2E7
330
20B
100
AcDbEntity
  8
0
  6
Continuous
 62
     5
100
AcDbLine
 10
103.2499999999999
 20
187.1999999999999
 30
0.0
 11
105.75
 21
187.1999999999999
 31
0.0
  0
LINE
  5
2E8
330
20B
100
AcDbEntity
  8
0
  6
Continuous
 62
     5
100
AcDbLine
 10
105.75
 20
191.0
 30
0.0
 11
105.75
 21
185.1999999999999
 31
0.0
  0
LINE
  5
2E9
330
20B
100
AcDbEntity
  8
0
  6
Continuous
 62
     5
100
AcDbLine
 10
105.75
 20
191.0
 30
0.0
 11
105.75
 21
185.0999999999999
 31
0.0
  0
LINE
  5
2EA
330
20B
100
AcDbEntity
  8
0
  6
Continuous
 62
     5
100
AcDbLine
 10
105.75
 20
190.0
 30
0.0
 11
105.75
 21
185.1999999999999
 31
0.0
  0
LINE
  5
2EB
330
20B
100
AcDbEntity
  8
0
  6
Continuous
 62
     5
100
AcDbLine
 10
105.75
 20
187.1999999999999
 30
0.0
 11
108.25
 21
187.1999999999999
 31
0.0
  0
LINE
  5
2EC
330
20B
100
AcDbEntity
  8
0
  6
Continuous
 62
     5
100
AcDbLine
 10
108.25
 20
191.0
 30
0.0
 11
108.25
 21
185.1999999999999
 31
0.0
  0
LINE
  5
2ED
330
20B
100
AcDbEntity
  8
0
  6
Continuous
 62
     5
100
AcDbLine
 10
108.25
 20
191.0
 30
0.0
 11
108.25
 21
185.0999999999999
 31
0.0
  0
LINE
  5
2EE
330
20B
100
AcDbEntity
  8
0
  6
Continuous
 62
     5
100
AcDbLine
 10
108.25
 20
190.0
 30
0.0
 11
108.25
 21
185.1999999999999
 31
0.0
  0
LINE
  5
2EF
330
20B
100
AcDbEntity
  8
0
  6
Continuous
 62
     5
100
AcDbLine
 10
108.25
 20
187.1999999999999
 30
0.0
 11
110.7499999999999
 21
187.1999999999999
 31
0.0
  0
LINE
  5
2F0
330
20B
100
AcDbEntity
  8
0
  6
Continuous
 62
     5
100
AcDbLine
 10
110.7499999999999
 20
191.0
 30
0.0
 11
110.7499999999999
 21
185.1999999999999
 31
0.0
  0
LINE
  5
2F1
330
20B
100
AcDbEntity
  8
0
  6
Continuous
 62
     5
100
AcDbLine
 10
110.7499999999999
 20
191.0
 30
0.0
 11
110.7499999999999
 21
185.0999999999999
 31
0.0
  0
LINE
  5
2F2
330
20B
100
AcDbEntity
  8
0
  6
Continuous
 62
     5
100
AcDbLine
 10
110.7499999999999
 20
190.0
 30
0.0
 11
110.7499999999999
 21
185.1999999999999
 31
0.0
  0
LINE
  5
2F3
330
20B
100
AcDbEntity
  8
0
  6
Continuous
 62
     5
100
AcDbLine
 10
113.25
 20
191.0
 30
0.0
 11
113.25
 21
185.1999999999999
 31
0.0
  0
LINE
  5
2F4
330
20B
100
AcDbEntity
  8
0
  6
Continuous
 62
     5
100
AcDbLine
 10
113.25
 20
191.0
 30
0.0
 11
113.25
 21
185.1999999999999
 31
0.0
  0
LINE
  5
2F5
330
20B
100
AcDbEntity
  8
0
  6
Continuous
 62
     5
100
AcDbLine
 10
113.25
 20
191.0
 30
0.0
 11
113.25
 21
185.0999999999999
 31
0.0
  0
LINE
  5
2F6
330
20B
100
AcDbEntity
  8
0
  6
Continuous
 62
     5
100
AcDbLine
 10
113.25
 20
190.0
 30
0.0
 11
113.25
 21
185.1999999999999
 31
0.0
  0
LINE
  5
2F7
330
20B
100
AcDbEntity
  8
0
  6
Continuous
 62
     5
100
AcDbLine
 10
113.25
 20
187.1999999999999
 30
0.0
 11
115.7499999999999
 21
187.1999999999999
 31
0.0
  0
LINE
  5
2F8
330
20B
100
AcDbEntity
  8
0
  6
Continuous
 62
     5
100
AcDbLine
 10
115.7499999999999
 20
191.0
 30
0.0
 11
115.7499999999999
 21
185.1999999999999
 31
0.0
  0
LINE
  5
2F9
330
20B
100
AcDbEntity
  8
0
  6
Continuous
 62
     5
100
AcDbLine
 10
115.7499999999999
 20
187.1999999999999
 30
0.0
 11
118.164814566
 21
187.8470476129997
 31
0.0
  0
LINE
  5
2FA
330
20B
100
AcDbEntity
  8
0
  6
Continuous
 62
     5
100
AcDbLine
 10
115.7499999999999
 20
187.1999999999999
 30
0.0
 11
118.164814566
 21
186.552952387
 31
0.0
  0
LINE
  5
2FB
330
20B
100
AcDbEntity
  8
0
  6
Continuous
 62
     5
100
AcDbLine
 10
110.7499999999999
 20
187.1999999999999
 30
0.0
 11
123.0
 21
187.1999999999999
 31
0.0
  0
TEXT
  5
2FC
330
20B
100
AcDbEntity
  8
0
  6
Continuous
 62
     3
100
AcDbText
 10
104.4249999999999
 20
181.0999999999999
 30
0.3
 40
3.0
  1
２.５４×５
 41
0.6
  7
KANJI0
100
AcDbText
  0
LINE
  5
2FD
330
20B
100
AcDbEntity
  8
0
  6
Continuous
 62
     5
100
AcDbLine
 10
149.0
 20
195.8999999999998
 30
0.3
 11
149.0
 21
185.0
 31
0.3
  0
TEXT
  5
2FE
330
20B
100
AcDbEntity
  8
0
  6
Continuous
 62
     3
100
AcDbText
 10
149.925
 20
188.0499999999999
 30
0.3
 40
3.0
  1
４.８
 41
0.6
  7
KANJI0
100
AcDbText
  0
LINE
  5
2FF
330
20B
100
AcDbEntity
  8
0
  6
Continuous
 62
     5
100
AcDbLine
 10
149.0
 20
187.0
 30
0.3
 11
151.4148145659999
 21
187.6470476129999
 31
0.3
  0
LINE
  5
300
330
20B
100
AcDbEntity
  8
0
  6
Continuous
 62
     5
100
AcDbLine
 10
149.0
 20
187.0
 30
0.0
 11
151.4148145659999
 21
186.352952387
 31
0.0
  0
LINE
  5
301
330
20B
100
AcDbEntity
  8
0
  6
Continuous
 62
     5
100
AcDbLine
 10
90.25
 20
187.1999999999999
 30
0.0
 11
103.2499999999999
 21
187.1999999999999
 31
0.0
  0
LINE
  5
302
330
20B
100
AcDbEntity
  8
0
  6
Continuous
 62
     5
100
AcDbLine
 10
98.50000000000001
 20
187.1999999999999
 30
0.0
 11
96.085185434
 21
187.8470476129997
 31
0.0
  0
LINE
  5
303
330
20B
100
AcDbEntity
  8
0
  6
Continuous
 62
     5
100
AcDbLine
 10
98.50000000000001
 20
187.1999999999999
 30
0.0
 11
96.085185434
 21
186.552952387
 31
0.0
  0
LINE
  5
304
330
20B
100
AcDbEntity
  8
0
  6
Continuous
 62
     5
100
AcDbLine
 10
144.1999999999999
 20
190.8
 30
0.0
 11
144.1999999999999
 21
184.9
 31
0.0
  0
LINE
  5
305
330
20B
100
AcDbEntity
  8
0
  6
Continuous
 62
     5
100
AcDbLine
 10
144.1999999999999
 20
189.8
 30
0.0
 11
144.1999999999999
 21
185.0
 31
0.0
  0
LINE
  5
306
330
20B
100
AcDbEntity
  8
0
  6
Continuous
 62
     5
100
AcDbLine
 10
141.6999999999999
 20
190.8
 30
0.0
 11
141.6999999999999
 21
185.0
 31
0.0
  0
LINE
  5
307
330
20B
100
AcDbEntity
  8
0
  6
Continuous
 62
     5
100
AcDbLine
 10
141.6999999999999
 20
190.8
 30
0.0
 11
141.6999999999999
 21
184.9
 31
0.0
  0
LINE
  5
308
330
20B
100
AcDbEntity
  8
0
  6
Continuous
 62
     5
100
AcDbLine
 10
141.6999999999999
 20
189.8
 30
0.0
 11
141.6999999999999
 21
185.0
 31
0.0
  0
LINE
  5
309
330
20B
100
AcDbEntity
  8
0
  6
Continuous
 62
     5
100
AcDbLine
 10
141.6999999999999
 20
187.0
 30
0.0
 11
139.1999999999999
 21
187.0
 31
0.0
  0
LINE
  5
30A
330
20B
100
AcDbEntity
  8
0
  6
Continuous
 62
     5
100
AcDbLine
 10
139.1999999999999
 20
190.8
 30
0.0
 11
139.1999999999999
 21
185.0
 31
0.0
  0
LINE
  5
30B
330
20B
100
AcDbEntity
  8
0
  6
Continuous
 62
     5
100
AcDbLine
 10
139.1999999999999
 20
190.8
 30
0.0
 11
139.1999999999999
 21
184.9
 31
0.0
  0
LINE
  5
30C
330
20B
100
AcDbEntity
  8
0
  6
Continuous
 62
     5
100
AcDbLine
 10
139.1999999999999
 20
189.8
 30
0.0
 11
139.1999999999999
 21
185.0
 31
0.0
  0
LINE
  5
30D
330
20B
100
AcDbEntity
  8
0
  6
Continuous
 62
     5
100
AcDbLine
 10
136.6999999999999
 20
190.8
 30
0.0
 11
136.6999999999999
 21
185.0
 31
0.0
  0
LINE
  5
30E
330
20B
100
AcDbEntity
  8
0
  6
Continuous
 62
     5
100
AcDbLine
 10
136.6999999999999
 20
190.8
 30
0.0
 11
136.6999999999999
 21
184.9
 31
0.0
  0
LINE
  5
30F
330
20B
100
AcDbEntity
  8
0
  6
Continuous
 62
     5
100
AcDbLine
 10
136.6999999999999
 20
189.8
 30
0.0
 11
136.6999999999999
 21
185.0
 31
0.0
  0
LINE
  5
310
330
20B
100
AcDbEntity
  8
0
  6
Continuous
 62
     5
100
AcDbLine
 10
136.6999999999999
 20
187.0
 30
0.0
 11
134.285185434
 21
187.6470476129999
 31
0.0
  0
LINE
  5
311
330
20B
100
AcDbEntity
  8
0
  6
Continuous
 62
     5
100
AcDbLine
 10
136.6999999999999
 20
187.0
 30
0.0
 11
134.285185434
 21
186.352952387
 31
0.0
  0
LINE
  5
312
330
20B
100
AcDbEntity
  8
0
  6
Continuous
 62
     5
100
AcDbLine
 10
158.8
 20
187.0
 30
0.0
 11
141.6999999999999
 21
187.0
 31
0.0
  0
LINE
  5
313
330
20B
100
AcDbEntity
  8
0
  6
Continuous
 62
     5
100
AcDbLine
 10
139.1999999999999
 20
187.0
 30
0.0
 11
128.6999999999999
 21
187.0
 31
0.0
  0
TEXT
  5
314
330
20B
100
AcDbEntity
  8
0
  6
Continuous
 62
     3
100
AcDbText
 10
134.725
 20
181.0999999999999
 30
0.3
 40
3.0
  1
２.５４×３
 41
0.6
  7
KANJI0
100
AcDbText
  0
LINE
  5
315
330
20B
100
AcDbEntity
  8
0
  6
Continuous
 62
     3
100
AcDbLine
 10
98.414814566
 20
160.6470476129999
 30
0.3
 11
148.9148145659999
 21
160.6470476129999
 31
0.3
  0
LINE
  5
316
330
20B
100
AcDbEntity
  8
0
  6
Continuous
 62
     3
100
AcDbLine
 10
98.414814566
 20
160.6470476129999
 30
0.0
 11
98.414814566
 21
149.6470476129998
 31
0.0
  0
LINE
  5
317
330
20B
100
AcDbEntity
  8
0
  6
Continuous
 62
     3
100
AcDbLine
 10
98.414814566
 20
149.6470476129998
 30
0.0
 11
148.9148145659999
 21
149.6470476129998
 31
0.0
  0
LINE
  5
318
330
20B
100
AcDbEntity
  8
0
  6
Continuous
 62
     3
100
AcDbLine
 10
148.9148145659999
 20
149.6470476129998
 30
0.0
 11
148.9148145659999
 21
160.6470476129999
 31
0.0
  0
LINE
  5
319
330
20B
100
AcDbEntity
  8
0
  6
Continuous
 62
     5
100
AcDbLine
 10
149.9148145659999
 20
160.6470476129999
 30
0.0
 11
160.9148145659998
 21
160.6470476129999
 31
0.0
  0
LINE
  5
31A
330
20B
100
AcDbEntity
  8
0
  6
Continuous
 62
     5
100
AcDbLine
 10
158.9148145659999
 20
160.6470476129999
 30
0.0
 11
159.5618621779999
 21
163.0618621779998
 31
0.0
  0
LINE
  5
31B
330
20B
100
AcDbEntity
  8
0
  6
Continuous
 62
     5
100
AcDbLine
 10
158.9148145659999
 20
160.6470476129999
 30
0.0
 11
158.2677669529997
 21
163.0618621779998
 31
0.0
  0
LINE
  5
31C
330
20B
100
AcDbEntity
  8
0
  6
Continuous
 62
     5
100
AcDbLine
 10
158.9148145659999
 20
164.3970476129998
 30
0.0
 11
158.9148145659999
 21
160.6470476129999
 31
0.0
  0
LINE
  5
31D
330
20B
100
AcDbEntity
  8
0
  6
Continuous
 62
     5
100
AcDbLine
 10
158.9148145659999
 20
160.6470476129999
 30
0.0
 11
158.9148145659999
 21
157.3470476129998
 31
0.0
  0
LINE
  5
31E
330
20B
100
AcDbEntity
  8
0
  6
Continuous
 62
     5
100
AcDbLine
 10
158.9148145659999
 20
157.3470476129998
 30
0.0
 11
158.9148145659999
 21
153.597047613
 31
0.0
  0
LINE
  5
31F
330
20B
100
AcDbEntity
  8
0
  6
Continuous
 62
     5
100
AcDbLine
 10
158.9148145659999
 20
157.3470476129998
 30
0.0
 11
158.2677669529997
 21
154.932233047
 31
0.0
  0
LINE
  5
320
330
20B
100
AcDbEntity
  8
0
  6
Continuous
 62
     5
100
AcDbLine
 10
158.9148145659999
 20
157.3470476129998
 30
0.0
 11
159.5618621779999
 21
154.932233047
 31
0.0
  0
TEXT
  5
321
330
20B
100
AcDbEntity
  8
0
  6
Continuous
 62
     3
100
AcDbText
 10
164.6148145659998
 20
155.997047613
 30
0.3
 40
3.0
  1
３.３
 50
90.0
 41
0.6
  7
KANJI0
100
AcDbText
  0
LINE
  5
322
330
20B
100
AcDbEntity
  8
0
  6
Continuous
 62
     5
100
AcDbLine
 10
144.9148145659999
 20
157.3470476129998
 30
0.3
 11
160.9148145659998
 21
157.3470476129998
 31
0.3
  0
LINE
  5
323
330
20B
100
AcDbEntity
  8
0
  6
Continuous
 62
     3
100
AcDbLine
 10
103.0
 20
157.5
 30
0.0
 11
103.4999999999999
 21
157.5
 31
0.0
  0
LINE
  5
324
330
20B
100
AcDbEntity
  8
0
  6
Continuous
 62
     3
100
AcDbLine
 10
105.4999999999999
 20
157.5
 30
0.0
 11
106.0
 21
157.5
 31
0.0
  0
LINE
  5
325
330
20B
100
AcDbEntity
  8
0
  6
Continuous
 62
     3
100
AcDbLine
 10
108.0
 20
157.5
 30
0.0
 11
108.4999999999999
 21
157.5
 31
0.0
  0
LINE
  5
326
330
20B
100
AcDbEntity
  8
0
  6
Continuous
 62
     3
100
AcDbLine
 10
110.4999999999999
 20
157.5
 30
0.0
 11
111.0
 21
157.5
 31
0.0
  0
LINE
  5
327
330
20B
100
AcDbEntity
  8
0
  6
Continuous
 62
     3
100
AcDbLine
 10
113.0
 20
157.5
 30
0.0
 11
113.5
 21
157.5
 31
0.0
  0
LINE
  5
328
330
20B
100
AcDbEntity
  8
0
  6
Continuous
 62
     3
100
AcDbLine
 10
115.5
 20
157.5
 30
0.0
 11
116.0
 21
157.5
 31
0.0
  0
LINE
  5
329
330
20B
100
AcDbEntity
  8
0
  6
Continuous
 62
     3
100
AcDbLine
 10
144.0
 20
157.5
 30
0.0
 11
144.5
 21
157.5
 31
0.0
  0
LINE
  5
32A
330
20B
100
AcDbEntity
  8
0
  6
Continuous
 62
     3
100
AcDbLine
 10
141.5
 20
157.5
 30
0.0
 11
142.0
 21
157.5
 31
0.0
  0
LINE
  5
32B
330
20B
100
AcDbEntity
  8
0
  6
Continuous
 62
     3
100
AcDbLine
 10
139.0
 20
157.5
 30
0.0
 11
139.5
 21
157.5
 31
0.0
  0
LINE
  5
32C
330
20B
100
AcDbEntity
  8
0
  6
Continuous
 62
     3
100
AcDbLine
 10
136.4999999999997
 20
157.5
 30
0.0
 11
137.0
 21
157.5
 31
0.0
  0
LINE
  5
32D
330
20B
100
AcDbEntity
  8
0
  6
Continuous
 62
     3
100
AcDbLine
 10
103.0
 20
157.5
 30
0.0
 11
103.0
 21
157.1999999999999
 31
0.0
  0
LINE
  5
32E
330
20B
100
AcDbEntity
  8
0
  6
Continuous
 62
     3
100
AcDbLine
 10
103.0
 20
157.1999999999999
 30
0.0
 11
103.4999999999999
 21
157.1999999999999
 31
0.0
  0
LINE
  5
32F
330
20B
100
AcDbEntity
  8
0
  6
Continuous
 62
     3
100
AcDbLine
 10
103.4999999999999
 20
157.1999999999999
 30
0.0
 11
103.4999999999999
 21
157.5
 31
0.0
  0
LINE
  5
330
330
20B
100
AcDbEntity
  8
0
  6
Continuous
 62
     3
100
AcDbLine
 10
105.4999999999999
 20
157.5
 30
0.0
 11
106.0
 21
157.5
 31
0.0
  0
LINE
  5
331
330
20B
100
AcDbEntity
  8
0
  6
Continuous
 62
     3
100
AcDbLine
 10
105.4999999999999
 20
157.5
 30
0.0
 11
105.4999999999999
 21
157.1999999999999
 31
0.0
  0
LINE
  5
332
330
20B
100
AcDbEntity
  8
0
  6
Continuous
 62
     3
100
AcDbLine
 10
105.4999999999999
 20
157.1999999999999
 30
0.0
 11
106.0
 21
157.1999999999999
 31
0.0
  0
LINE
  5
333
330
20B
100
AcDbEntity
  8
0
  6
Continuous
 62
     3
100
AcDbLine
 10
106.0
 20
157.1999999999999
 30
0.0
 11
106.0
 21
157.5
 31
0.0
  0
LINE
  5
334
330
20B
100
AcDbEntity
  8
0
  6
Continuous
 62
     3
100
AcDbLine
 10
108.0
 20
157.5
 30
0.0
 11
108.4999999999999
 21
157.5
 31
0.0
  0
LINE
  5
335
330
20B
100
AcDbEntity
  8
0
  6
Continuous
 62
     3
100
AcDbLine
 10
108.0
 20
157.5
 30
0.0
 11
108.4999999999999
 21
157.5
 31
0.0
  0
LINE
  5
336
330
20B
100
AcDbEntity
  8
0
  6
Continuous
 62
     3
100
AcDbLine
 10
108.0
 20
157.5
 30
0.0
 11
108.0
 21
157.1999999999999
 31
0.0
  0
LINE
  5
337
330
20B
100
AcDbEntity
  8
0
  6
Continuous
 62
     3
100
AcDbLine
 10
108.0
 20
157.1999999999999
 30
0.0
 11
108.4999999999999
 21
157.1999999999999
 31
0.0
  0
LINE
  5
338
330
20B
100
AcDbEntity
  8
0
  6
Continuous
 62
     3
100
AcDbLine
 10
108.4999999999999
 20
157.1999999999999
 30
0.0
 11
108.4999999999999
 21
157.5
 31
0.0
  0
LINE
  5
339
330
20B
100
AcDbEntity
  8
0
  6
Continuous
 62
     3
100
AcDbLine
 10
110.4999999999999
 20
157.5
 30
0.0
 11
111.0
 21
157.5
 31
0.0
  0
LINE
  5
33A
330
20B
100
AcDbEntity
  8
0
  6
Continuous
 62
     3
100
AcDbLine
 10
110.4999999999999
 20
157.5
 30
0.0
 11
111.0
 21
157.5
 31
0.0
  0
LINE
  5
33B
330
20B
100
AcDbEntity
  8
0
  6
Continuous
 62
     3
100
AcDbLine
 10
110.4999999999999
 20
157.5
 30
0.0
 11
111.0
 21
157.5
 31
0.0
  0
LINE
  5
33C
330
20B
100
AcDbEntity
  8
0
  6
Continuous
 62
     3
100
AcDbLine
 10
110.4999999999999
 20
157.5
 30
0.0
 11
110.4999999999999
 21
157.1999999999999
 31
0.0
  0
LINE
  5
33D
330
20B
100
AcDbEntity
  8
0
  6
Continuous
 62
     3
100
AcDbLine
 10
110.4999999999999
 20
157.1999999999999
 30
0.0
 11
111.0
 21
157.1999999999999
 31
0.0
  0
LINE
  5
33E
330
20B
100
AcDbEntity
  8
0
  6
Continuous
 62
     3
100
AcDbLine
 10
111.0
 20
157.1999999999999
 30
0.0
 11
111.0
 21
157.5
 31
0.0
  0
LINE
  5
33F
330
20B
100
AcDbEntity
  8
0
  6
Continuous
 62
     3
100
AcDbLine
 10
113.0
 20
157.5
 30
0.0
 11
113.5
 21
157.5
 31
0.0
  0
LINE
  5
340
330
20B
100
AcDbEntity
  8
0
  6
Continuous
 62
     3
100
AcDbLine
 10
113.0
 20
157.5
 30
0.0
 11
113.5
 21
157.5
 31
0.0
  0
LINE
  5
341
330
20B
100
AcDbEntity
  8
0
  6
Continuous
 62
     3
100
AcDbLine
 10
113.0
 20
157.5
 30
0.0
 11
113.5
 21
157.5
 31
0.0
  0
LINE
  5
342
330
20B
100
AcDbEntity
  8
0
  6
Continuous
 62
     3
100
AcDbLine
 10
113.0
 20
157.5
 30
0.0
 11
113.5
 21
157.5
 31
0.0
  0
LINE
  5
343
330
20B
100
AcDbEntity
  8
0
  6
Continuous
 62
     3
100
AcDbLine
 10
113.0
 20
157.5
 30
0.0
 11
113.0
 21
157.1999999999999
 31
0.0
  0
LINE
  5
344
330
20B
100
AcDbEntity
  8
0
  6
Continuous
 62
     3
100
AcDbLine
 10
113.0
 20
157.1999999999999
 30
0.0
 11
113.5
 21
157.1999999999999
 31
0.0
  0
LINE
  5
345
330
20B
100
AcDbEntity
  8
0
  6
Continuous
 62
     3
100
AcDbLine
 10
113.5
 20
157.1999999999999
 30
0.0
 11
113.5
 21
157.5
 31
0.0
  0
LINE
  5
346
330
20B
100
AcDbEntity
  8
0
  6
Continuous
 62
     3
100
AcDbLine
 10
115.5
 20
157.5
 30
0.0
 11
116.0
 21
157.5
 31
0.0
  0
LINE
  5
347
330
20B
100
AcDbEntity
  8
0
  6
Continuous
 62
     3
100
AcDbLine
 10
115.5
 20
157.5
 30
0.0
 11
116.0
 21
157.5
 31
0.0
  0
LINE
  5
348
330
20B
100
AcDbEntity
  8
0
  6
Continuous
 62
     3
100
AcDbLine
 10
115.5
 20
157.5
 30
0.0
 11
116.0
 21
157.5
 31
0.0
  0
LINE
  5
349
330
20B
100
AcDbEntity
  8
0
  6
Continuous
 62
     3
100
AcDbLine
 10
115.5
 20
157.5
 30
0.0
 11
116.0
 21
157.5
 31
0.0
  0
LINE
  5
34A
330
20B
100
AcDbEntity
  8
0
  6
Continuous
 62
     3
100
AcDbLine
 10
115.5
 20
157.5
 30
0.0
 11
116.0
 21
157.5
 31
0.0
  0
LINE
  5
34B
330
20B
100
AcDbEntity
  8
0
  6
Continuous
 62
     3
100
AcDbLine
 10
115.5
 20
157.5
 30
0.0
 11
115.5
 21
157.1999999999999
 31
0.0
  0
LINE
  5
34C
330
20B
100
AcDbEntity
  8
0
  6
Continuous
 62
     3
100
AcDbLine
 10
115.5
 20
157.1999999999999
 30
0.0
 11
116.0
 21
157.1999999999999
 31
0.0
  0
LINE
  5
34D
330
20B
100
AcDbEntity
  8
0
  6
Continuous
 62
     3
100
AcDbLine
 10
116.0
 20
157.1999999999999
 30
0.0
 11
116.0
 21
157.5
 31
0.0
  0
LINE
  5
34E
330
20B
100
AcDbEntity
  8
0
  6
Continuous
 62
     3
100
AcDbLine
 10
136.4999999999997
 20
157.5
 30
0.0
 11
137.0
 21
157.5
 31
0.0
  0
LINE
  5
34F
330
20B
100
AcDbEntity
  8
0
  6
Continuous
 62
     3
100
AcDbLine
 10
136.4999999999997
 20
157.5
 30
0.0
 11
137.0
 21
157.5
 31
0.0
  0
LINE
  5
350
330
20B
100
AcDbEntity
  8
0
  6
Continuous
 62
     3
100
AcDbLine
 10
136.4999999999997
 20
157.5
 30
0.0
 11
137.0
 21
157.5
 31
0.0
  0
LINE
  5
351
330
20B
100
AcDbEntity
  8
0
  6
Continuous
 62
     3
100
AcDbLine
 10
136.4999999999997
 20
157.5
 30
0.0
 11
137.0
 21
157.5
 31
0.0
  0
LINE
  5
352
330
20B
100
AcDbEntity
  8
0
  6
Continuous
 62
     3
100
AcDbLine
 10
136.4999999999997
 20
157.5
 30
0.0
 11
137.0
 21
157.5
 31
0.0
  0
LINE
  5
353
330
20B
100
AcDbEntity
  8
0
  6
Continuous
 62
     3
100
AcDbLine
 10
136.4999999999997
 20
157.5
 30
0.0
 11
137.0
 21
157.5
 31
0.0
  0
LINE
  5
354
330
20B
100
AcDbEntity
  8
0
  6
Continuous
 62
     3
100
AcDbLine
 10
136.4999999999997
 20
157.5
 30
0.0
 11
136.4999999999997
 21
157.1999999999999
 31
0.0
  0
LINE
  5
355
330
20B
100
AcDbEntity
  8
0
  6
Continuous
 62
     3
100
AcDbLine
 10
136.4999999999997
 20
157.1999999999999
 30
0.0
 11
137.0
 21
157.1999999999999
 31
0.0
  0
LINE
  5
356
330
20B
100
AcDbEntity
  8
0
  6
Continuous
 62
     3
100
AcDbLine
 10
137.0
 20
157.1999999999999
 30
0.0
 11
137.0
 21
157.5
 31
0.0
  0
LINE
  5
357
330
20B
100
AcDbEntity
  8
0
  6
Continuous
 62
     3
100
AcDbLine
 10
139.0
 20
157.5
 30
0.0
 11
139.5
 21
157.5
 31
0.0
  0
LINE
  5
358
330
20B
100
AcDbEntity
  8
0
  6
Continuous
 62
     3
100
AcDbLine
 10
139.0
 20
157.5
 30
0.0
 11
139.5
 21
157.5
 31
0.0
  0
LINE
  5
359
330
20B
100
AcDbEntity
  8
0
  6
Continuous
 62
     3
100
AcDbLine
 10
139.0
 20
157.5
 30
0.0
 11
139.5
 21
157.5
 31
0.0
  0
LINE
  5
35A
330
20B
100
AcDbEntity
  8
0
  6
Continuous
 62
     3
100
AcDbLine
 10
139.0
 20
157.5
 30
0.0
 11
139.5
 21
157.5
 31
0.0
  0
LINE
  5
35B
330
20B
100
AcDbEntity
  8
0
  6
Continuous
 62
     3
100
AcDbLine
 10
139.0
 20
157.5
 30
0.0
 11
139.5
 21
157.5
 31
0.0
  0
LINE
  5
35C
330
20B
100
AcDbEntity
  8
0
  6
Continuous
 62
     3
100
AcDbLine
 10
139.0
 20
157.5
 30
0.0
 11
139.5
 21
157.5
 31
0.0
  0
LINE
  5
35D
330
20B
100
AcDbEntity
  8
0
  6
Continuous
 62
     3
100
AcDbLine
 10
139.0
 20
157.5
 30
0.0
 11
139.5
 21
157.5
 31
0.0
  0
LINE
  5
35E
330
20B
100
AcDbEntity
  8
0
  6
Continuous
 62
     3
100
AcDbLine
 10
139.0
 20
157.5
 30
0.0
 11
139.0
 21
157.1999999999999
 31
0.0
  0
LINE
  5
35F
330
20B
100
AcDbEntity
  8
0
  6
Continuous
 62
     3
100
AcDbLine
 10
139.0
 20
157.1999999999999
 30
0.0
 11
139.5
 21
157.1999999999999
 31
0.0
  0
LINE
  5
360
330
20B
100
AcDbEntity
  8
0
  6
Continuous
 62
     3
100
AcDbLine
 10
139.5
 20
157.1999999999999
 30
0.0
 11
139.5
 21
157.5
 31
0.0
  0
LINE
  5
361
330
20B
100
AcDbEntity
  8
0
  6
Continuous
 62
     3
100
AcDbLine
 10
144.0
 20
157.5
 30
0.0
 11
144.5
 21
157.5
 31
0.0
  0
LINE
  5
362
330
20B
100
AcDbEntity
  8
0
  6
Continuous
 62
     3
100
AcDbLine
 10
141.5
 20
157.5
 30
0.0
 11
142.0
 21
157.5
 31
0.0
  0
LINE
  5
363
330
20B
100
AcDbEntity
  8
0
  6
Continuous
 62
     3
100
AcDbLine
 10
141.5
 20
157.5
 30
0.0
 11
142.0
 21
157.5
 31
0.0
  0
LINE
  5
364
330
20B
100
AcDbEntity
  8
0
  6
Continuous
 62
     3
100
AcDbLine
 10
141.5
 20
157.5
 30
0.0
 11
142.0
 21
157.5
 31
0.0
  0
LINE
  5
365
330
20B
100
AcDbEntity
  8
0
  6
Continuous
 62
     3
100
AcDbLine
 10
141.5
 20
157.5
 30
0.0
 11
142.0
 21
157.5
 31
0.0
  0
LINE
  5
366
330
20B
100
AcDbEntity
  8
0
  6
Continuous
 62
     3
100
AcDbLine
 10
141.5
 20
157.5
 30
0.0
 11
142.0
 21
157.5
 31
0.0
  0
LINE
  5
367
330
20B
100
AcDbEntity
  8
0
  6
Continuous
 62
     3
100
AcDbLine
 10
141.5
 20
157.5
 30
0.0
 11
142.0
 21
157.5
 31
0.0
  0
LINE
  5
368
330
20B
100
AcDbEntity
  8
0
  6
Continuous
 62
     3
100
AcDbLine
 10
141.5
 20
157.5
 30
0.0
 11
142.0
 21
157.5
 31
0.0
  0
LINE
  5
369
330
20B
100
AcDbEntity
  8
0
  6
Continuous
 62
     3
100
AcDbLine
 10
141.5
 20
157.5
 30
0.0
 11
141.5
 21
157.1999999999999
 31
0.0
  0
LINE
  5
36A
330
20B
100
AcDbEntity
  8
0
  6
Continuous
 62
     3
100
AcDbLine
 10
141.5
 20
157.1999999999999
 30
0.0
 11
142.0
 21
157.1999999999999
 31
0.0
  0
LINE
  5
36B
330
20B
100
AcDbEntity
  8
0
  6
Continuous
 62
     3
100
AcDbLine
 10
142.0
 20
157.1999999999999
 30
0.0
 11
142.0
 21
157.5
 31
0.0
  0
LINE
  5
36C
330
20B
100
AcDbEntity
  8
0
  6
Continuous
 62
     3
100
AcDbLine
 10
144.0
 20
157.5
 30
0.0
 11
144.5
 21
157.5
 31
0.0
  0
LINE
  5
36D
330
20B
100
AcDbEntity
  8
0
  6
Continuous
 62
     3
100
AcDbLine
 10
144.0
 20
157.5
 30
0.0
 11
144.5
 21
157.5
 31
0.0
  0
LINE
  5
36E
330
20B
100
AcDbEntity
  8
0
  6
Continuous
 62
     3
100
AcDbLine
 10
144.0
 20
157.5
 30
0.0
 11
144.5
 21
157.5
 31
0.0
  0
LINE
  5
36F
330
20B
100
AcDbEntity
  8
0
  6
Continuous
 62
     3
100
AcDbLine
 10
144.0
 20
157.5
 30
0.0
 11
144.5
 21
157.5
 31
0.0
  0
LINE
  5
370
330
20B
100
AcDbEntity
  8
0
  6
Continuous
 62
     3
100
AcDbLine
 10
144.0
 20
157.5
 30
0.0
 11
144.5
 21
157.5
 31
0.0
  0
LINE
  5
371
330
20B
100
AcDbEntity
  8
0
  6
Continuous
 62
     3
100
AcDbLine
 10
144.0
 20
157.5
 30
0.0
 11
144.5
 21
157.5
 31
0.0
  0
LINE
  5
372
330
20B
100
AcDbEntity
  8
0
  6
Continuous
 62
     3
100
AcDbLine
 10
144.0
 20
157.5
 30
0.0
 11
144.5
 21
157.5
 31
0.0
  0
LINE
  5
373
330
20B
100
AcDbEntity
  8
0
  6
Continuous
 62
     3
100
AcDbLine
 10
144.0
 20
157.5
 30
0.0
 11
144.0
 21
157.1999999999999
 31
0.0
  0
LINE
  5
374
330
20B
100
AcDbEntity
  8
0
  6
Continuous
 62
     3
100
AcDbLine
 10
144.0
 20
157.1999999999999
 30
0.0
 11
144.5
 21
157.1999999999999
 31
0.0
  0
LINE
  5
375
330
20B
100
AcDbEntity
  8
0
  6
Continuous
 62
     3
100
AcDbLine
 10
144.5
 20
157.1999999999999
 30
0.0
 11
144.5
 21
157.5
 31
0.0
  0
LINE
  5
376
330
20B
100
AcDbEntity
  8
0
  6
Continuous
 62
     5
100
AcDbLine
 10
97.414814566
 20
160.6470476129999
 30
0.0
 11
83.49999999999999
 21
160.6470476129999
 31
0.0
  0
LINE
  5
377
330
20B
100
AcDbEntity
  8
0
  6
Continuous
 62
     5
100
AcDbLine
 10
85.5
 20
160.6470476129999
 30
0.0
 11
86.147047613
 21
163.0618621779998
 31
0.0
  0
LINE
  5
378
330
20B
100
AcDbEntity
  8
0
  6
Continuous
 62
     5
100
AcDbLine
 10
85.5
 20
160.6470476129999
 30
0.0
 11
84.852952387
 21
163.0618621779998
 31
0.0
  0
LINE
  5
379
330
20B
100
AcDbEntity
  8
0
  6
Continuous
 62
     5
100
AcDbLine
 10
85.5
 20
164.3970476129998
 30
0.0
 11
85.5
 21
160.6470476129999
 31
0.0
  0
LINE
  5
37A
330
20B
100
AcDbEntity
  8
0
  6
Continuous
 62
     5
100
AcDbLine
 10
85.5
 20
160.6470476129999
 30
0.0
 11
85.5
 21
149.6470476129998
 31
0.0
  0
LINE
  5
37B
330
20B
100
AcDbEntity
  8
0
  6
Continuous
 62
     5
100
AcDbLine
 10
85.5
 20
149.6470476129998
 30
0.0
 11
85.5
 21
145.897047613
 31
0.0
  0
LINE
  5
37C
330
20B
100
AcDbEntity
  8
0
  6
Continuous
 62
     5
100
AcDbLine
 10
85.5
 20
149.6470476129998
 30
0.0
 11
84.852952387
 21
147.2322330469999
 31
0.0
  0
LINE
  5
37D
330
20B
100
AcDbEntity
  8
0
  6
Continuous
 62
     5
100
AcDbLine
 10
85.5
 20
149.6470476129998
 30
0.0
 11
86.147047613
 21
147.2322330469999
 31
0.0
  0
LINE
  5
37E
330
20B
100
AcDbEntity
  8
0
  6
Continuous
 62
     5
100
AcDbLine
 10
97.414814566
 20
149.6470476129998
 30
0.0
 11
83.49999999999999
 21
149.6470476129998
 31
0.0
  0
TEXT
  5
37F
330
20B
100
AcDbEntity
  8
0
  6
Continuous
 62
     3
100
AcDbText
 10
84.50000000000001
 20
153.1970476129998
 30
0.3
 40
3.0
  1
１１
 50
90.0
 41
0.6
  7
KANJI0
100
AcDbText
  0
TEXT
  5
380
330
20B
100
AcDbEntity
  8
0
  6
Continuous
 62
     3
100
AcDbText
 10
102.214814566
 20
153.447047613
 30
0.3
 40
2.5
  1
１
 41
0.8
  7
KANJI1
100
AcDbText
  0
TEXT
  5
381
330
20B
100
AcDbEntity
  8
0
  6
Continuous
 62
     3
100
AcDbText
 10
104.714814566
 20
153.447047613
 30
0.3
 40
2.5
  1
２
 41
0.8
  7
KANJI1
100
AcDbText
  0
TEXT
  5
382
330
20B
100
AcDbEntity
  8
0
  6
Continuous
 62
     3
100
AcDbText
 10
107.2148145659999
 20
153.447047613
 30
0.3
 40
2.5
  1
３
 41
0.8
  7
KANJI1
100
AcDbText
  0
TEXT
  5
383
330
20B
100
AcDbEntity
  8
0
  6
Continuous
 62
     3
100
AcDbText
 10
109.714814566
 20
153.447047613
 30
0.3
 40
2.5
  1
４
 41
0.8
  7
KANJI1
100
AcDbText
  0
TEXT
  5
384
330
20B
100
AcDbEntity
  8
0
  6
Continuous
 62
     3
100
AcDbText
 10
112.2148145659999
 20
153.447047613
 30
0.3
 40
2.5
  1
５
 41
0.8
  7
KANJI1
100
AcDbText
  0
TEXT
  5
385
330
20B
100
AcDbEntity
  8
0
  6
Continuous
 62
     3
100
AcDbText
 10
114.714814566
 20
153.447047613
 30
0.3
 40
2.5
  1
６
 41
0.8
  7
KANJI1
100
AcDbText
  0
TEXT
  5
386
330
20B
100
AcDbEntity
  8
0
  6
Continuous
 62
     3
100
AcDbText
 10
135.714814566
 20
153.447047613
 30
0.3
 40
2.5
  1
１４
 41
0.4
  7
KANJI2
100
AcDbText
  0
TEXT
  5
387
330
20B
100
AcDbEntity
  8
0
  6
Continuous
 62
     3
100
AcDbText
 10
138.2148145659997
 20
153.447047613
 30
0.3
 40
2.5
  1
１５
 41
0.4
  7
KANJI2
100
AcDbText
  0
TEXT
  5
388
330
20B
100
AcDbEntity
  8
0
  6
Continuous
 62
     3
100
AcDbText
 10
140.714814566
 20
153.447047613
 30
0.3
 40
2.5
  1
１６
 41
0.4
  7
KANJI2
100
AcDbText
  0
TEXT
  5
389
330
20B
100
AcDbEntity
  8
0
  6
Continuous
 62
     3
100
AcDbText
 10
143.214814566
 20
153.447047613
 30
0.3
 40
2.5
  1
１７
 41
0.4
  7
KANJI2
100
AcDbText
  0
ARC
  5
38A
330
20B
100
AcDbEntity
  8
0
  6
Continuous
 62
     3
100
AcDbCircle
 10
154.9
 20
139.9
 30
0.3
 40
1.199999999999999
100
AcDbArc
 50
90.0
 51
270.0
  0
LINE
  5
38B
330
20B
100
AcDbEntity
  8
0
  6
Continuous
 62
     3
100
AcDbLine
 10
155.0
 20
141.1
 30
0.3
 11
157.6
 21
141.1
 31
0.3
  0
ARC
  5
38C
330
20B
100
AcDbEntity
  8
0
  6
Continuous
 62
     3
100
AcDbCircle
 10
157.6
 20
139.9
 30
0.0
 40
1.199999999999999
100
AcDbArc
 50
270.0
 51
90.0
  0
LINE
  5
38D
330
20B
100
AcDbEntity
  8
0
  6
Continuous
 62
     5
100
AcDbLine
 10
162.9
 20
141.1
 30
0.0
 11
163.5470476129999
 21
143.514814566
 31
0.0
  0
LINE
  5
38E
330
20B
100
AcDbEntity
  8
0
  6
Continuous
 62
     5
100
AcDbLine
 10
162.9
 20
141.1
 30
0.0
 11
162.2529523869999
 21
143.514814566
 31
0.0
  0
LINE
  5
38F
330
20B
100
AcDbEntity
  8
0
  6
Continuous
 62
     5
100
AcDbLine
 10
162.9
 20
144.8499999999999
 30
0.0
 11
162.9
 21
141.1
 31
0.0
  0
LINE
  5
390
330
20B
100
AcDbEntity
  8
0
  6
Continuous
 62
     5
100
AcDbLine
 10
162.9
 20
141.1
 30
0.0
 11
162.9
 21
138.7
 31
0.0
  0
LINE
  5
391
330
20B
100
AcDbEntity
  8
0
  6
Continuous
 62
     5
100
AcDbLine
 10
162.9
 20
138.7
 30
0.0
 11
162.9
 21
134.9499999999999
 31
0.0
  0
LINE
  5
392
330
20B
100
AcDbEntity
  8
0
  6
Continuous
 62
     5
100
AcDbLine
 10
162.9
 20
138.7
 30
0.0
 11
162.2529523869999
 21
136.285185434
 31
0.0
  0
LINE
  5
393
330
20B
100
AcDbEntity
  8
0
  6
Continuous
 62
     5
100
AcDbLine
 10
162.9
 20
138.7
 30
0.0
 11
163.5470476129999
 21
136.285185434
 31
0.0
  0
TEXT
  5
394
330
20B
100
AcDbEntity
  8
0
  6
Continuous
 62
     3
100
AcDbText
 10
168.5
 20
135.85
 30
0.3
 40
3.0
  1
０.２５
 50
90.0
 41
0.6
  7
KANJI0
100
AcDbText
  0
LINE
  5
395
330
20B
100
AcDbEntity
  8
0
  6
Continuous
 62
     5
100
AcDbLine
 10
153.5
 20
146.9
 30
0.3
 11
151.085185434
 21
147.5470476129999
 31
0.3
  0
LINE
  5
396
330
20B
100
AcDbEntity
  8
0
  6
Continuous
 62
     5
100
AcDbLine
 10
153.5
 20
146.9
 30
0.0
 11
151.085185434
 21
146.2529523869999
 31
0.0
  0
LINE
  5
397
330
20B
100
AcDbEntity
  8
0
  6
Continuous
 62
     5
100
AcDbLine
 10
149.75
 20
146.9
 30
0.0
 11
153.5
 21
146.9
 31
0.0
  0
LINE
  5
398
330
20B
100
AcDbEntity
  8
0
  6
Continuous
 62
     5
100
AcDbLine
 10
153.5
 20
146.9
 30
0.0
 11
158.6999999999999
 21
146.9
 31
0.0
  0
LINE
  5
399
330
20B
100
AcDbEntity
  8
0
  6
Continuous
 62
     5
100
AcDbLine
 10
158.6999999999999
 20
146.9
 30
0.0
 11
162.4499999999999
 21
146.9
 31
0.0
  0
LINE
  5
39A
330
20B
100
AcDbEntity
  8
0
  6
Continuous
 62
     5
100
AcDbLine
 10
158.6999999999999
 20
146.9
 30
0.0
 11
161.114814566
 21
146.2529523869999
 31
0.0
  0
LINE
  5
39B
330
20B
100
AcDbEntity
  8
0
  6
Continuous
 62
     5
100
AcDbLine
 10
158.6999999999999
 20
146.9
 30
0.0
 11
161.114814566
 21
147.5470476129999
 31
0.0
  0
TEXT
  5
39C
330
20B
100
AcDbEntity
  8
0
  6
Continuous
 62
     3
100
AcDbText
 10
153.0999999999997
 20
149.0999999999999
 30
0.3
 40
3.0
  1
０.５
 41
0.6
  7
KANJI0
100
AcDbText
  0
LINE
  5
39D
330
20B
100
AcDbEntity
  8
0
  6
Continuous
 62
     5
100
AcDbLine
 10
153.5
 20
140.8999999999998
 30
0.3
 11
153.5
 21
147.6999999999998
 31
0.3
  0
LINE
  5
39E
330
20B
100
AcDbEntity
  8
0
  6
Continuous
 62
     5
100
AcDbLine
 10
158.6999999999999
 20
140.8999999999998
 30
0.0
 11
158.6999999999999
 21
147.5
 31
0.0
  0
LINE
  5
39F
330
20B
100
AcDbEntity
  8
0
  6
Continuous
 62
     5
100
AcDbLine
 10
159.4999999999997
 20
141.1
 30
0.0
 11
163.5999999999999
 21
141.1
 31
0.0
  0
LINE
  5
3A0
330
20B
100
AcDbEntity
  8
0
  6
Continuous
 62
     5
100
AcDbLine
 10
159.4
 20
138.7
 30
0.0
 11
163.7
 21
138.7
 31
0.0
  0
LINE
  5
3A1
330
20B
100
AcDbEntity
  8
0
  6
Continuous
 62
     3
100
AcDbLine
 10
154.9
 20
138.7
 30
0.0
 11
157.5
 21
138.7
 31
0.0
  0
LINE
  5
3A2
330
20B
100
AcDbEntity
  8
0
  6
Continuous
 62
     3
100
AcDbLine
 10
103.0
 20
192.0
 30
0.0
 11
103.4999999999999
 21
192.0
 31
0.0
  0
LINE
  5
3A3
330
20B
100
AcDbEntity
  8
0
  6
Continuous
 62
     3
100
AcDbLine
 10
105.4999999999999
 20
192.0
 30
0.0
 11
106.0
 21
192.0
 31
0.0
  0
LINE
  5
3A4
330
20B
100
AcDbEntity
  8
0
  6
Continuous
 62
     3
100
AcDbLine
 10
108.0
 20
192.0
 30
0.0
 11
108.4999999999999
 21
192.0
 31
0.0
  0
LINE
  5
3A5
330
20B
100
AcDbEntity
  8
0
  6
Continuous
 62
     3
100
AcDbLine
 10
110.4999999999999
 20
192.0
 30
0.0
 11
111.0
 21
192.0
 31
0.0
  0
LINE
  5
3A6
330
20B
100
AcDbEntity
  8
0
  6
Continuous
 62
     3
100
AcDbLine
 10
113.0
 20
192.0
 30
0.0
 11
113.5
 21
192.0
 31
0.0
  0
LINE
  5
3A7
330
20B
100
AcDbEntity
  8
0
  6
Continuous
 62
     3
100
AcDbLine
 10
115.5
 20
192.0
 30
0.0
 11
116.0
 21
192.0
 31
0.0
  0
LINE
  5
3A8
330
20B
100
AcDbEntity
  8
0
  6
Continuous
 62
     3
100
AcDbLine
 10
136.4999999999997
 20
192.0
 30
0.0
 11
137.0
 21
192.0
 31
0.0
  0
LINE
  5
3A9
330
20B
100
AcDbEntity
  8
0
  6
Continuous
 62
     3
100
AcDbLine
 10
139.0
 20
192.0
 30
0.0
 11
139.5
 21
192.0
 31
0.0
  0
LINE
  5
3AA
330
20B
100
AcDbEntity
  8
0
  6
Continuous
 62
     3
100
AcDbLine
 10
141.5
 20
192.0
 30
0.0
 11
142.0
 21
192.0
 31
0.0
  0
LINE
  5
3AB
330
20B
100
AcDbEntity
  8
0
  6
Continuous
 62
     3
100
AcDbLine
 10
144.0
 20
192.0
 30
0.0
 11
144.5
 21
192.0
 31
0.0
  0
LINE
  5
3AC
330
20B
100
AcDbEntity
  8
0
  6
Continuous
 62
     5
100
AcDbLine
 10
98.50000000000001
 20
184.1
 30
0.0
 11
98.50000000000001
 21
172.0
 31
0.0
  0
LINE
  5
3AD
330
20B
100
AcDbEntity
  8
0
  6
Continuous
 62
     5
100
AcDbLine
 10
98.50000000000001
 20
174.0
 30
0.0
 11
100.9148145659999
 21
173.352952387
 31
0.0
  0
LINE
  5
3AE
330
20B
100
AcDbEntity
  8
0
  6
Continuous
 62
     5
100
AcDbLine
 10
98.50000000000001
 20
174.0
 30
0.0
 11
100.9148145659999
 21
174.6470476129999
 31
0.0
  0
LINE
  5
3AF
330
20B
100
AcDbEntity
  8
0
  6
Continuous
 62
     5
100
AcDbLine
 10
98.50000000000001
 20
174.0
 30
0.0
 11
123.5999999999997
 21
174.0
 31
0.0
  0
LINE
  5
3B0
330
20B
100
AcDbEntity
  8
0
  6
Continuous
 62
     5
100
AcDbLine
 10
123.5999999999997
 20
174.0
 30
0.0
 11
121.1851854339998
 21
174.6470476129999
 31
0.0
  0
LINE
  5
3B1
330
20B
100
AcDbEntity
  8
0
  6
Continuous
 62
     5
100
AcDbLine
 10
123.5999999999997
 20
174.0
 30
0.0
 11
121.1851854339998
 21
173.352952387
 31
0.0
  0
TEXT
  5
3B2
330
20B
100
AcDbEntity
  8
0
  6
Continuous
 62
     3
100
AcDbText
 10
105.95
 20
175.0
 30
0.3
 40
3.0
  1
２５.１２
 41
0.6
  7
KANJI0
100
AcDbText
  0
LINE
  5
3B3
330
20B
100
AcDbEntity
  8
0
  6
Continuous
 62
     3
100
AcDbLine
 10
123.35
 20
197.0
 30
0.3
 11
123.35
 21
192.0
 31
0.3
  0
LINE
  5
3B4
330
20B
100
AcDbEntity
  8
0
  6
Continuous
 62
     3
100
AcDbLine
 10
123.8499999999997
 20
192.0
 30
0.0
 11
123.8499999999997
 21
197.0
 31
0.0
  0
LINE
  5
3B5
330
20B
100
AcDbEntity
  8
0
  6
Continuous
 62
     3
100
AcDbLine
 10
123.35
 20
192.0
 30
0.0
 11
123.8499999999997
 21
192.0
 31
0.0
  0
LINE
  5
3B6
330
20B
100
AcDbEntity
  8
0
  6
Continuous
 62
     3
100
AcDbLine
 10
125.8499999999997
 20
197.0
 30
0.0
 11
125.8499999999997
 21
192.0
 31
0.0
  0
LINE
  5
3B7
330
20B
100
AcDbEntity
  8
0
  6
Continuous
 62
     3
100
AcDbLine
 10
126.35
 20
192.0
 30
0.0
 11
126.35
 21
197.0
 31
0.0
  0
LINE
  5
3B8
330
20B
100
AcDbEntity
  8
0
  6
Continuous
 62
     3
100
AcDbLine
 10
125.8499999999997
 20
192.0
 30
0.0
 11
126.35
 21
192.0
 31
0.0
  0
LINE
  5
3B9
330
20B
100
AcDbEntity
  8
0
  6
Continuous
 62
     5
100
AcDbLine
 10
123.5999999999997
 20
191.0
 30
0.0
 11
123.5999999999997
 21
172.0
 31
0.0
  0
LINE
  5
3BA
330
20B
100
AcDbEntity
  8
0
  6
Continuous
 62
     5
100
AcDbLine
 10
123.5999999999997
 20
177.8
 30
0.0
 11
123.5999999999997
 21
172.0
 31
0.0
  0
LINE
  5
3BB
330
20B
100
AcDbEntity
  8
0
  6
Continuous
 62
     5
100
AcDbLine
 10
123.5999999999997
 20
177.8
 30
0.0
 11
123.5999999999997
 21
172.0
 31
0.0
  0
LINE
  5
3BC
330
20B
100
AcDbEntity
  8
0
  6
Continuous
 62
     5
100
AcDbLine
 10
123.5999999999997
 20
177.8
 30
0.0
 11
123.5999999999997
 21
171.9
 31
0.0
  0
LINE
  5
3BD
330
20B
100
AcDbEntity
  8
0
  6
Continuous
 62
     5
100
AcDbLine
 10
123.5999999999997
 20
176.8
 30
0.0
 11
123.5999999999997
 21
172.0
 31
0.0
  0
LINE
  5
3BE
330
20B
100
AcDbEntity
  8
0
  6
Continuous
 62
     5
100
AcDbLine
 10
126.0999999999997
 20
174.0
 30
0.0
 11
128.514814566
 21
174.6470476129999
 31
0.0
  0
LINE
  5
3BF
330
20B
100
AcDbEntity
  8
0
  6
Continuous
 62
     5
100
AcDbLine
 10
126.0999999999997
 20
174.0
 30
0.0
 11
128.514814566
 21
173.352952387
 31
0.0
  0
LINE
  5
3C0
330
20B
100
AcDbEntity
  8
0
  6
Continuous
 62
     5
100
AcDbLine
 10
126.0999999999997
 20
191.0
 30
0.0
 11
126.0999999999997
 21
172.0
 31
0.0
  0
LINE
  5
3C1
330
20B
100
AcDbEntity
  8
0
  6
Continuous
 62
     5
100
AcDbLine
 10
123.5999999999997
 20
174.0
 30
0.0
 11
133.3
 21
174.0
 31
0.0
  0
TEXT
  5
3C2
330
20B
100
AcDbEntity
  8
0
  6
Continuous
 62
     3
100
AcDbText
 10
129.125
 20
175.1999999999999
 30
0.3
 40
3.0
  1
２.５４
 41
0.6
  7
KANJI0
100
AcDbText
  0
LINE
  5
3C3
330
20B
100
AcDbEntity
  8
0
  6
Continuous
 62
     3
100
AcDbLine
 10
123.35
 20
157.5
 30
0.3
 11
123.8499999999997
 21
157.5
 31
0.3
  0
LINE
  5
3C4
330
20B
100
AcDbEntity
  8
0
  6
Continuous
 62
     3
100
AcDbLine
 10
125.8499999999997
 20
157.5
 30
0.0
 11
126.35
 21
157.5
 31
0.0
  0
LINE
  5
3C5
330
20B
100
AcDbEntity
  8
0
  6
Continuous
 62
     3
100
AcDbLine
 10
123.35
 20
157.5
 30
0.0
 11
123.8499999999997
 21
157.5
 31
0.0
  0
LINE
  5
3C6
330
20B
100
AcDbEntity
  8
0
  6
Continuous
 62
     3
100
AcDbLine
 10
123.35
 20
157.5
 30
0.0
 11
123.8499999999997
 21
157.5
 31
0.0
  0
LINE
  5
3C7
330
20B
100
AcDbEntity
  8
0
  6
Continuous
 62
     3
100
AcDbLine
 10
123.35
 20
157.5
 30
0.0
 11
123.8499999999997
 21
157.5
 31
0.0
  0
LINE
  5
3C8
330
20B
100
AcDbEntity
  8
0
  6
Continuous
 62
     3
100
AcDbLine
 10
123.35
 20
157.5
 30
0.0
 11
123.8499999999997
 21
157.5
 31
0.0
  0
LINE
  5
3C9
330
20B
100
AcDbEntity
  8
0
  6
Continuous
 62
     3
100
AcDbLine
 10
123.35
 20
157.5
 30
0.0
 11
123.35
 21
157.1999999999999
 31
0.0
  0
LINE
  5
3CA
330
20B
100
AcDbEntity
  8
0
  6
Continuous
 62
     3
100
AcDbLine
 10
123.35
 20
157.1999999999999
 30
0.0
 11
123.8499999999997
 21
157.1999999999999
 31
0.0
  0
LINE
  5
3CB
330
20B
100
AcDbEntity
  8
0
  6
Continuous
 62
     3
100
AcDbLine
 10
123.8499999999997
 20
157.1999999999999
 30
0.0
 11
123.8499999999997
 21
157.5
 31
0.0
  0
LINE
  5
3CC
330
20B
100
AcDbEntity
  8
0
  6
Continuous
 62
     3
100
AcDbLine
 10
125.8499999999997
 20
157.5
 30
0.0
 11
126.35
 21
157.5
 31
0.0
  0
LINE
  5
3CD
330
20B
100
AcDbEntity
  8
0
  6
Continuous
 62
     3
100
AcDbLine
 10
125.8499999999997
 20
157.5
 30
0.0
 11
126.35
 21
157.5
 31
0.0
  0
LINE
  5
3CE
330
20B
100
AcDbEntity
  8
0
  6
Continuous
 62
     3
100
AcDbLine
 10
125.8499999999997
 20
157.5
 30
0.0
 11
126.35
 21
157.5
 31
0.0
  0
LINE
  5
3CF
330
20B
100
AcDbEntity
  8
0
  6
Continuous
 62
     3
100
AcDbLine
 10
125.8499999999997
 20
157.5
 30
0.0
 11
126.35
 21
157.5
 31
0.0
  0
LINE
  5
3D0
330
20B
100
AcDbEntity
  8
0
  6
Continuous
 62
     3
100
AcDbLine
 10
125.8499999999997
 20
157.5
 30
0.0
 11
126.35
 21
157.5
 31
0.0
  0
LINE
  5
3D1
330
20B
100
AcDbEntity
  8
0
  6
Continuous
 62
     3
100
AcDbLine
 10
125.8499999999997
 20
157.5
 30
0.0
 11
125.8499999999997
 21
157.1999999999999
 31
0.0
  0
LINE
  5
3D2
330
20B
100
AcDbEntity
  8
0
  6
Continuous
 62
     3
100
AcDbLine
 10
125.8499999999997
 20
157.1999999999999
 30
0.0
 11
126.35
 21
157.1999999999999
 31
0.0
  0
LINE
  5
3D3
330
20B
100
AcDbEntity
  8
0
  6
Continuous
 62
     3
100
AcDbLine
 10
126.35
 20
157.1999999999999
 30
0.0
 11
126.35
 21
157.5
 31
0.0
  0
TEXT
  5
3D4
330
20B
100
AcDbEntity
  8
0
  6
Continuous
 62
     3
100
AcDbText
 10
122.564814566
 20
153.447047613
 30
0.3
 40
2.5
  1
９
 41
0.8
  7
KANJI1
100
AcDbText
  0
TEXT
  5
3D5
330
20B
100
AcDbEntity
  8
0
  6
Continuous
 62
     3
100
AcDbText
 10
125.064814566
 20
153.447047613
 30
0.3
 40
2.5
  1
１０
 41
0.4
  7
KANJI2
100
AcDbText
  0
TEXT
  5
3E2
330
20B
100
AcDbEntity
  8
0
  6
Continuous
 62
     3
100
AcDbText
 10
151.5611961120339
 20
130.4929699300733
 30
0.3
 40
3.0
  1
ピンの大きさ
 41
0.6
  7
KANJI0
100
AcDbText
  0
ENDSEC
  0
SECTION
  2
OBJECTS
  0
DICTIONARY
  5
1F9
330
0
100
AcDbDictionary
281
     1
  3
ACAD_GROUP
350
1FA
  3
ACAD_PLOTSTYLENAME
350
1FB
  3
ACAD_MLINESTYLE
350
203
  3
ACAD_PLOTSETTINGS
350
205
  3
ACAD_LAYOUT
350
206
  0
DICTIONARY
  5
1FA
102
{ACAD_REACTORS
330
1F9
102
}
330
1F9
100
AcDbDictionary
281
     1
  0
ACDBDICTIONARYWDFLT
  5
1FB
102
{ACAD_REACTORS
330
1F9
102
}
330
1F9
100
AcDbDictionary
281
     1
  3
Normal
350
1FC
100
AcDbDictionaryWithDefault
340
1FC
  0
DICTIONARY
  5
203
102
{ACAD_REACTORS
330
1F9
102
}
330
1F9
100
AcDbDictionary
281
     1
  3
Standard
350
204
  0
DICTIONARY
  5
205
102
{ACAD_REACTORS
330
1F9
102
}
330
1F9
100
AcDbDictionary
281
     1
  0
DICTIONARY
  5
206
102
{ACAD_REACTORS
330
1F9
102
}
330
1F9
100
AcDbDictionary
281
     1
  3
ﾚｲｱｳﾄ1
350
20A
  3
Model
350
20E
  0
ACDBPLACEHOLDER
  5
1FC
102
{ACAD_REACTORS
330
1FB
102
}
330
1FB
  0
MLINESTYLE
  5
204
102
{ACAD_REACTORS
330
203
102
}
330
203
100
AcDbMlineStyle
  2
STANDARD
 70
     0
  3

 62
   256
 51
90.0
 52
90.0
 71
     2
 49
0.5
 62
   256
  6
BYLAYER
 49
-0.5
 62
   256
  6
BYLAYER
  0
LAYOUT
  5
20A
102
{ACAD_REACTORS
330
206
102
}
330
206
100
AcDbPlotSettings
  1

  2
Canon LASER SHOT LBP-880
  4

  6

 40
0.0
 41
0.0
 42
0.0
 43
0.0
 44
0.0
 45
0.0
 46
0.0
 47
0.0
 48
0.0
 49
0.0
140
0.0
141
0.0
142
1.0
143
1.0
 70
   688
 72
     0
 73
     0
 74
     5
  7

 75
    16
147
1.0
148
0.0
149
0.0
100
AcDbLayout
  1
ﾚｲｱｳﾄ1
 70
     1
 71
     1
 10
0.0
 20
0.0
 11
12.0
 21
9.0
 12
0.0
 22
0.0
 32
0.0
 14
1.000000000000000E+20
 24
1.000000000000000E+20
 34
1.000000000000000E+20
 15
-1.000000000000000E+20
 25
-1.000000000000000E+20
 35
-1.000000000000000E+20
146
0.0
 13
0.0
 23
0.0
 33
0.0
 16
1.0
 26
0.0
 36
0.0
 17
0.0
 27
1.0
 37
0.0
 76
     0
330
207
  0
LAYOUT
  5
20E
102
{ACAD_REACTORS
330
206
102
}
330
206
100
AcDbPlotSettings
  1

  2
Canon LASER SHOT LBP-880
  4

  6

 40
0.0
 41
0.0
 42
0.0
 43
0.0
 44
0.0
 45
0.0
 46
0.0
 47
0.0
 48
0.0
 49
0.0
140
0.0
141
0.0
142
1.0
143
1.0
 70
  1712
 72
     0
 73
     0
 74
     0
  7

 75
     0
147
1.0
148
0.0
149
0.0
100
AcDbLayout
  1
Model
 70
     1
 71
     0
 10
0.0
 20
0.0
 11
12.0
 21
9.0
 12
0.0
 22
0.0
 32
0.0
 14
0.0
 24
0.0
 34
0.0
 15
0.0
 25
0.0
 35
0.0
146
0.0
 13
0.0
 23
0.0
 33
0.0
 16
1.0
 26
0.0
 36
0.0
 17
0.0
 27
1.0
 37
0.0
 76
     0
330
20B
  0
ENDSEC
  0
EOF
