  0
SECTION
  2
HEADER
  9
$ACADVER
  1
AC1015
  9
$ACADMAINTVER
 70
    20
  9
$DWGCODEPAGE
  3
ANSI_932
  9
$INSBASE
 10
0.0
 20
0.0
 30
0.0
  9
$EXTMIN
 10
-1.558815053331238E+64
 20
-5.941616374145988E+73
 30
0.0
  9
$EXTMAX
 10
3.329982210498351E+99
 20
1.269263905633295E+99
 30
0.3
  9
$LIMMIN
 10
0.0
 20
0.0
  9
$LIMMAX
 10
420.0
 20
297.0
  9
$ORTHOMODE
 70
     0
  9
$REGENMODE
 70
     1
  9
$FILLMODE
 70
     1
  9
$QTEXTMODE
 70
     0
  9
$MIRRTEXT
 70
     1
  9
$LTSCALE
 40
1.0
  9
$ATTMODE
 70
     1
  9
$TEXTSIZE
 40
0.2
  9
$TRACEWID
 40
0.05
  9
$TEXTSTYLE
  7
STANDARD
  9
$CLAYER
  8
0
  9
$CELTYPE
  6
BYBLOCK
  9
$CECOLOR
 62
   256
  9
$CELTSCALE
 40
1.0
  9
$DISPSILH
 70
     0
  9
$DIMSCALE
 40
1.0
  9
$DIMASZ
 40
0.18
  9
$DIMEXO
 40
0.0625
  9
$DIMDLI
 40
0.38
  9
$DIMRND
 40
0.0
  9
$DIMDLE
 40
0.0
  9
$DIMEXE
 40
0.18
  9
$DIMTP
 40
0.0
  9
$DIMTM
 40
0.0
  9
$DIMTXT
 40
0.18
  9
$DIMCEN
 40
0.09
  9
$DIMTSZ
 40
0.0
  9
$DIMTOL
 70
     0
  9
$DIMLIM
 70
     0
  9
$DIMTIH
 70
     1
  9
$DIMTOH
 70
     1
  9
$DIMSE1
 70
     0
  9
$DIMSE2
 70
     0
  9
$DIMTAD
 70
     0
  9
$DIMZIN
 70
     0
  9
$DIMBLK
  1

  9
$DIMASO
 70
     1
  9
$DIMSHO
 70
     1
  9
$DIMPOST
  1

  9
$DIMAPOST
  1

  9
$DIMALT
 70
     0
  9
$DIMALTD
 70
     2
  9
$DIMALTF
 40
25.4
  9
$DIMLFAC
 40
1.0
  9
$DIMTOFL
 70
     0
  9
$DIMTVP
 40
0.0
  9
$DIMTIX
 70
     0
  9
$DIMSOXD
 70
     0
  9
$DIMSAH
 70
     0
  9
$DIMBLK1
  1

  9
$DIMBLK2
  1

  9
$DIMSTYLE
  2
STANDARD
  9
$DIMCLRD
 70
     0
  9
$DIMCLRE
 70
     0
  9
$DIMCLRT
 70
     0
  9
$DIMTFAC
 40
1.0
  9
$DIMGAP
 40
0.09
  9
$DIMJUST
 70
     0
  9
$DIMSD1
 70
     0
  9
$DIMSD2
 70
     0
  9
$DIMTOLJ
 70
     1
  9
$DIMTZIN
 70
     0
  9
$DIMALTZ
 70
     0
  9
$DIMALTTZ
 70
     0
  9
$DIMUPT
 70
     0
  9
$DIMDEC
 70
     4
  9
$DIMTDEC
 70
     4
  9
$DIMALTU
 70
     2
  9
$DIMALTTD
 70
     2
  9
$DIMTXSTY
  7
STANDARD
  9
$DIMAUNIT
 70
     0
  9
$DIMADEC
 70
     0
  9
$DIMALTRND
 40
0.0
  9
$DIMAZIN
 70
     0
  9
$DIMDSEP
 70
    46
  9
$DIMATFIT
 70
     3
  9
$DIMFRAC
 70
     0
  9
$DIMLDRBLK
  1

  9
$DIMLUNIT
 70
     2
  9
$DIMLWD
 70
    -2
  9
$DIMLWE
 70
    -2
  9
$DIMTMOVE
 70
     0
  9
$LUNITS
 70
     2
  9
$LUPREC
 70
     4
  9
$SKETCHINC
 40
0.1
  9
$FILLETRAD
 40
0.5
  9
$AUNITS
 70
     0
  9
$AUPREC
 70
     0
  9
$MENU
  1
.
  9
$ELEVATION
 40
0.0
  9
$PELEVATION
 40
0.0
  9
$THICKNESS
 40
0.0
  9
$LIMCHECK
 70
     0
  9
$CHAMFERA
 40
0.0
  9
$CHAMFERB
 40
0.0
  9
$CHAMFERC
 40
0.0
  9
$CHAMFERD
 40
0.0
  9
$SKPOLY
 70
     0
  9
$TDCREATE
 40
2458337.625623113
  9
$TDUCREATE
 40
2458337.250623114
  9
$TDUPDATE
 40
2458638.495115590
  9
$TDUUPDATE
 40
2458638.120115590
  9
$TDINDWG
 40
0.0036680208
  9
$TDUSRTIMER
 40
2458337.256576308
  9
$USRTIMER
 70
     1
  9
$ANGBASE
 50
0.0
  9
$ANGDIR
 70
     0
  9
$PDMODE
 70
     0
  9
$PDSIZE
 40
0.0
  9
$PLINEWID
 40
0.0
  9
$SPLFRAME
 70
     0
  9
$SPLINETYPE
 70
     6
  9
$SPLINESEGS
 70
     8
  9
$HANDSEED
  5
637
  9
$SURFTAB1
 70
     6
  9
$SURFTAB2
 70
     6
  9
$SURFTYPE
 70
     6
  9
$SURFU
 70
     6
  9
$SURFV
 70
     6
  9
$UCSBASE
  2

  9
$UCSNAME
  2

  9
$UCSORG
 10
0.0
 20
0.0
 30
0.0
  9
$UCSXDIR
 10
1.0
 20
0.0
 30
0.0
  9
$UCSYDIR
 10
0.0
 20
1.0
 30
0.0
  9
$UCSORTHOREF
  2

  9
$UCSORTHOVIEW
 70
     0
  9
$UCSORGTOP
 10
0.0
 20
0.0
 30
0.0
  9
$UCSORGBOTTOM
 10
0.0
 20
0.0
 30
0.0
  9
$UCSORGLEFT
 10
0.0
 20
0.0
 30
0.0
  9
$UCSORGRIGHT
 10
0.0
 20
0.0
 30
0.0
  9
$UCSORGFRONT
 10
0.0
 20
0.0
 30
0.0
  9
$UCSORGBACK
 10
0.0
 20
0.0
 30
0.0
  9
$PUCSBASE
  2

  9
$PUCSNAME
  2

  9
$PUCSORG
 10
0.0
 20
0.0
 30
0.0
  9
$PUCSXDIR
 10
1.0
 20
0.0
 30
0.0
  9
$PUCSYDIR
 10
0.0
 20
1.0
 30
0.0
  9
$PUCSORTHOREF
  2

  9
$PUCSORTHOVIEW
 70
     0
  9
$PUCSORGTOP
 10
0.0
 20
0.0
 30
0.0
  9
$PUCSORGBOTTOM
 10
0.0
 20
0.0
 30
0.0
  9
$PUCSORGLEFT
 10
0.0
 20
0.0
 30
0.0
  9
$PUCSORGRIGHT
 10
0.0
 20
0.0
 30
0.0
  9
$PUCSORGFRONT
 10
0.0
 20
0.0
 30
0.0
  9
$PUCSORGBACK
 10
0.0
 20
0.0
 30
0.0
  9
$USERI1
 70
     0
  9
$USERI2
 70
     0
  9
$USERI3
 70
     0
  9
$USERI4
 70
     0
  9
$USERI5
 70
     0
  9
$USERR1
 40
0.0
  9
$USERR2
 40
0.0
  9
$USERR3
 40
0.0
  9
$USERR4
 40
0.0
  9
$USERR5
 40
0.0
  9
$WORLDVIEW
 70
     1
  9
$SHADEDGE
 70
     3
  9
$SHADEDIF
 70
    70
  9
$TILEMODE
 70
     1
  9
$MAXACTVP
 70
    64
  9
$PINSBASE
 10
0.0
 20
0.0
 30
0.0
  9
$PLIMCHECK
 70
     0
  9
$PEXTMIN
 10
1.000000000000000E+20
 20
1.000000000000000E+20
 30
1.000000000000000E+20
  9
$PEXTMAX
 10
-1.000000000000000E+20
 20
-1.000000000000000E+20
 30
-1.000000000000000E+20
  9
$PLIMMIN
 10
0.0
 20
0.0
  9
$PLIMMAX
 10
0.0
 20
0.0
  9
$UNITMODE
 70
     0
  9
$VISRETAIN
 70
     1
  9
$PLINEGEN
 70
     0
  9
$PSLTSCALE
 70
     1
  9
$TREEDEPTH
 70
  3020
  9
$CMLSTYLE
  2
STANDARD
  9
$CMLJUST
 70
     0
  9
$CMLSCALE
 40
1.0
  9
$PROXYGRAPHICS
 70
     1
  9
$MEASUREMENT
 70
     0
  9
$CELWEIGHT
370
    -1
  9
$ENDCAPS
280
     0
  9
$JOINSTYLE
280
     0
  9
$LWDISPLAY
290
     0
  9
$INSUNITS
 70
     0
  9
$HYPERLINKBASE
  1

  9
$STYLESHEET
  1

  9
$XEDIT
290
     1
  9
$CEPSNTYPE
380
     2
  9
$PSTYLEMODE
290
     0
  9
$FINGERPRINTGUID
  2
{F477BA35-1AF8-4194-81D2-3AFD81FC3C1E}
  9
$VERSIONGUID
  2
{2D8D1955-4E5D-428D-9031-A2AD58204FE6}
  9
$EXTNAMES
290
     1
  9
$PSVPSCALE
 40
0.0
  9
$OLESTARTUP
290
     0
  0
ENDSEC
  0
SECTION
  2
CLASSES
  0
CLASS
  1
ACDBDICTIONARYWDFLT
  2
AcDbDictionaryWithDefault
  3
ObjectDBX Classes
 90
        0
280
     0
281
     0
  0
CLASS
  1
MATERIAL
  2
AcDbMaterial
  3
ObjectDBX Classes
 90
     1153
280
     0
281
     0
  0
CLASS
  1
SCALE
  2
AcDbScale
  3
ObjectDBX Classes
 90
     1153
280
     0
281
     0
  0
CLASS
  1
VISUALSTYLE
  2
AcDbVisualStyle
  3
ObjectDBX Classes
 90
     4095
280
     0
281
     0
  0
CLASS
  1
TABLESTYLE
  2
AcDbTableStyle
  3
ObjectDBX Classes
 90
     4095
280
     0
281
     0
  0
CLASS
  1
MLEADERSTYLE
  2
AcDbMLeaderStyle
  3
ACDB_MLEADERSTYLE_CLASS
 90
     4095
280
     0
281
     0
  0
CLASS
  1
SUN
  2
AcDbSun
  3
SCENEOE
 90
    33921
280
     0
281
     0
  0
CLASS
  1
RASTERVARIABLES
  2
AcDbRasterVariables
  3
ISM
 90
        0
280
     0
281
     0
  0
CLASS
  1
DICTIONARYVAR
  2
AcDbDictionaryVar
  3
ObjectDBX Classes
 90
        0
280
     0
281
     0
  0
CLASS
  1
CELLSTYLEMAP
  2
AcDbCellStyleMap
  3
ObjectDBX Classes
 90
     1152
280
     0
281
     0
  0
CLASS
  1
ACDBPLACEHOLDER
  2
AcDbPlaceHolder
  3
ObjectDBX Classes
 90
        0
280
     0
281
     0
  0
CLASS
  1
LAYOUT
  2
AcDbLayout
  3
ObjectDBX Classes
 90
        0
280
     0
281
     0
  0
ENDSEC
  0
SECTION
  2
TABLES
  0
TABLE
  2
VPORT
  5
8
330
0
100
AcDbSymbolTable
 70
     1
  0
VPORT
  5
B1
330
8
100
AcDbSymbolTableRecord
100
AcDbViewportTableRecord
  2
*ACTIVE
 70
     0
 10
0.0
 20
0.0
 11
1.0
 21
1.0
 12
107.1819477902813
 22
80.40530477420544
 13
0.0
 23
0.0
 14
0.5
 24
0.5
 15
0.5
 25
0.5
 16
0.0
 26
0.0
 36
1.0
 17
0.0
 27
0.0
 37
0.0
 40
17.5070139602758
 41
1.832151300236406
 42
50.0
 43
0.0
 44
0.0
 50
0.0
 51
0.0
 71
    16
 72
   100
 73
     1
 74
     3
 75
     0
 76
     0
 77
     0
 78
     0
281
     0
 65
     1
110
0.0
120
0.0
130
0.0
111
1.0
121
0.0
131
0.0
112
0.0
122
1.0
132
0.0
 79
     0
146
0.0
  0
ENDTAB
  0
TABLE
  2
LTYPE
  5
5
330
0
100
AcDbSymbolTable
 70
     3
  0
LTYPE
  5
14
330
5
100
AcDbSymbolTableRecord
100
AcDbLinetypeTableRecord
  2
BYBLOCK
 70
     0
  3

 72
    65
 73
     0
 40
0.0
  0
LTYPE
  5
15
330
5
100
AcDbSymbolTableRecord
100
AcDbLinetypeTableRecord
  2
BYLAYER
 70
     0
  3

 72
    65
 73
     0
 40
0.0
  0
LTYPE
  5
16
330
5
100
AcDbSymbolTableRecord
100
AcDbLinetypeTableRecord
  2
CONTINUOUS
 70
     0
  3
Solid line
 72
    65
 73
     0
 40
0.0
  0
LTYPE
  5
21
330
5
100
AcDbSymbolTableRecord
100
AcDbLinetypeTableRecord
  2
LTYPE1
 70
     0
  3
CENTER
 72
    65
 73
     4
 40
15.0
 49
10.5
 74
     0
 49
-1.5
 74
     0
 49
1.5
 74
     0
 49
-1.5
 74
     0
  0
LTYPE
  5
22
330
5
100
AcDbSymbolTableRecord
100
AcDbLinetypeTableRecord
  2
LTYPE2
 70
     0
  3
HIDDEN
 72
    65
 73
     2
 40
1.5
 49
0.9
 74
     0
 49
-0.6
 74
     0
  0
ENDTAB
  0
TABLE
  2
LAYER
  5
2
330
0
100
AcDbSymbolTable
 70
   128
  0
LAYER
  5
10
102
{ACAD_XDICTIONARY
360
4F2
102
}
330
2
100
AcDbSymbolTableRecord
100
AcDbLayerTableRecord
  2
0
 70
     0
 62
     7
  6
CONTINUOUS
370
    -3
390
4EB
  0
LAYER
  5
28
102
{ACAD_XDICTIONARY
360
4F4
102
}
330
2
100
AcDbSymbolTableRecord
100
AcDbLayerTableRecord
  2
1
 70
     0
 62
     7
  6
CONTINUOUS
370
    -3
390
4EB
  0
LAYER
  5
29
102
{ACAD_XDICTIONARY
360
4F6
102
}
330
2
100
AcDbSymbolTableRecord
100
AcDbLayerTableRecord
  2
2
 70
     0
 62
     7
  6
CONTINUOUS
370
    -3
390
4EB
  0
LAYER
  5
2A
102
{ACAD_XDICTIONARY
360
4F8
102
}
330
2
100
AcDbSymbolTableRecord
100
AcDbLayerTableRecord
  2
3
 70
     0
 62
     7
  6
CONTINUOUS
370
    -3
390
4EB
  0
LAYER
  5
2B
102
{ACAD_XDICTIONARY
360
4FA
102
}
330
2
100
AcDbSymbolTableRecord
100
AcDbLayerTableRecord
  2
4
 70
     0
 62
     7
  6
CONTINUOUS
370
    -3
390
4EB
  0
LAYER
  5
2C
102
{ACAD_XDICTIONARY
360
4FC
102
}
330
2
100
AcDbSymbolTableRecord
100
AcDbLayerTableRecord
  2
5
 70
     0
 62
     7
  6
CONTINUOUS
370
    -3
390
4EB
  0
LAYER
  5
2D
102
{ACAD_XDICTIONARY
360
4FE
102
}
330
2
100
AcDbSymbolTableRecord
100
AcDbLayerTableRecord
  2
6
 70
     0
 62
     7
  6
CONTINUOUS
370
    -3
390
4EB
  0
LAYER
  5
2E
102
{ACAD_XDICTIONARY
360
500
102
}
330
2
100
AcDbSymbolTableRecord
100
AcDbLayerTableRecord
  2
7
 70
     0
 62
     7
  6
CONTINUOUS
370
    -3
390
4EB
  0
LAYER
  5
2F
102
{ACAD_XDICTIONARY
360
502
102
}
330
2
100
AcDbSymbolTableRecord
100
AcDbLayerTableRecord
  2
8
 70
     0
 62
     7
  6
CONTINUOUS
370
    -3
390
4EB
  0
LAYER
  5
30
102
{ACAD_XDICTIONARY
360
504
102
}
330
2
100
AcDbSymbolTableRecord
100
AcDbLayerTableRecord
  2
9
 70
     0
 62
     7
  6
CONTINUOUS
370
    -3
390
4EB
  0
LAYER
  5
31
102
{ACAD_XDICTIONARY
360
506
102
}
330
2
100
AcDbSymbolTableRecord
100
AcDbLayerTableRecord
  2
10
 70
     0
 62
     7
  6
CONTINUOUS
370
    -3
390
4EB
  0
LAYER
  5
32
102
{ACAD_XDICTIONARY
360
508
102
}
330
2
100
AcDbSymbolTableRecord
100
AcDbLayerTableRecord
  2
11
 70
     0
 62
     7
  6
CONTINUOUS
370
    -3
390
4EB
  0
LAYER
  5
33
102
{ACAD_XDICTIONARY
360
50A
102
}
330
2
100
AcDbSymbolTableRecord
100
AcDbLayerTableRecord
  2
12
 70
     0
 62
     7
  6
CONTINUOUS
370
    -3
390
4EB
  0
LAYER
  5
34
102
{ACAD_XDICTIONARY
360
50C
102
}
330
2
100
AcDbSymbolTableRecord
100
AcDbLayerTableRecord
  2
13
 70
     0
 62
     7
  6
CONTINUOUS
370
    -3
390
4EB
  0
LAYER
  5
35
102
{ACAD_XDICTIONARY
360
50E
102
}
330
2
100
AcDbSymbolTableRecord
100
AcDbLayerTableRecord
  2
14
 70
     0
 62
     7
  6
CONTINUOUS
370
    -3
390
4EB
  0
LAYER
  5
36
102
{ACAD_XDICTIONARY
360
510
102
}
330
2
100
AcDbSymbolTableRecord
100
AcDbLayerTableRecord
  2
15
 70
     0
 62
     7
  6
CONTINUOUS
370
    -3
390
4EB
  0
LAYER
  5
37
102
{ACAD_XDICTIONARY
360
512
102
}
330
2
100
AcDbSymbolTableRecord
100
AcDbLayerTableRecord
  2
16
 70
     0
 62
     7
  6
CONTINUOUS
370
    -3
390
4EB
  0
LAYER
  5
38
102
{ACAD_XDICTIONARY
360
514
102
}
330
2
100
AcDbSymbolTableRecord
100
AcDbLayerTableRecord
  2
17
 70
     0
 62
     7
  6
CONTINUOUS
370
    -3
390
4EB
  0
LAYER
  5
39
102
{ACAD_XDICTIONARY
360
516
102
}
330
2
100
AcDbSymbolTableRecord
100
AcDbLayerTableRecord
  2
18
 70
     0
 62
     7
  6
CONTINUOUS
370
    -3
390
4EB
  0
LAYER
  5
3A
102
{ACAD_XDICTIONARY
360
518
102
}
330
2
100
AcDbSymbolTableRecord
100
AcDbLayerTableRecord
  2
19
 70
     0
 62
     7
  6
CONTINUOUS
370
    -3
390
4EB
  0
LAYER
  5
3B
102
{ACAD_XDICTIONARY
360
51A
102
}
330
2
100
AcDbSymbolTableRecord
100
AcDbLayerTableRecord
  2
20
 70
     0
 62
     7
  6
CONTINUOUS
370
    -3
390
4EB
  0
LAYER
  5
3C
102
{ACAD_XDICTIONARY
360
51C
102
}
330
2
100
AcDbSymbolTableRecord
100
AcDbLayerTableRecord
  2
21
 70
     0
 62
     7
  6
CONTINUOUS
370
    -3
390
4EB
  0
LAYER
  5
3D
102
{ACAD_XDICTIONARY
360
51E
102
}
330
2
100
AcDbSymbolTableRecord
100
AcDbLayerTableRecord
  2
22
 70
     0
 62
     7
  6
CONTINUOUS
370
    -3
390
4EB
  0
LAYER
  5
3E
102
{ACAD_XDICTIONARY
360
520
102
}
330
2
100
AcDbSymbolTableRecord
100
AcDbLayerTableRecord
  2
23
 70
     0
 62
     7
  6
CONTINUOUS
370
    -3
390
4EB
  0
LAYER
  5
3F
102
{ACAD_XDICTIONARY
360
522
102
}
330
2
100
AcDbSymbolTableRecord
100
AcDbLayerTableRecord
  2
24
 70
     0
 62
     7
  6
CONTINUOUS
370
    -3
390
4EB
  0
LAYER
  5
40
102
{ACAD_XDICTIONARY
360
524
102
}
330
2
100
AcDbSymbolTableRecord
100
AcDbLayerTableRecord
  2
25
 70
     0
 62
     7
  6
CONTINUOUS
370
    -3
390
4EB
  0
LAYER
  5
41
102
{ACAD_XDICTIONARY
360
526
102
}
330
2
100
AcDbSymbolTableRecord
100
AcDbLayerTableRecord
  2
26
 70
     0
 62
     7
  6
CONTINUOUS
370
    -3
390
4EB
  0
LAYER
  5
42
102
{ACAD_XDICTIONARY
360
528
102
}
330
2
100
AcDbSymbolTableRecord
100
AcDbLayerTableRecord
  2
27
 70
     0
 62
     7
  6
CONTINUOUS
370
    -3
390
4EB
  0
LAYER
  5
43
102
{ACAD_XDICTIONARY
360
52A
102
}
330
2
100
AcDbSymbolTableRecord
100
AcDbLayerTableRecord
  2
28
 70
     0
 62
     7
  6
CONTINUOUS
370
    -3
390
4EB
  0
LAYER
  5
44
102
{ACAD_XDICTIONARY
360
52C
102
}
330
2
100
AcDbSymbolTableRecord
100
AcDbLayerTableRecord
  2
29
 70
     0
 62
     7
  6
CONTINUOUS
370
    -3
390
4EB
  0
LAYER
  5
45
102
{ACAD_XDICTIONARY
360
52E
102
}
330
2
100
AcDbSymbolTableRecord
100
AcDbLayerTableRecord
  2
30
 70
     0
 62
     7
  6
CONTINUOUS
370
    -3
390
4EB
  0
LAYER
  5
46
102
{ACAD_XDICTIONARY
360
530
102
}
330
2
100
AcDbSymbolTableRecord
100
AcDbLayerTableRecord
  2
31
 70
     0
 62
     7
  6
CONTINUOUS
370
    -3
390
4EB
  0
LAYER
  5
47
102
{ACAD_XDICTIONARY
360
532
102
}
330
2
100
AcDbSymbolTableRecord
100
AcDbLayerTableRecord
  2
32
 70
     0
 62
     7
  6
CONTINUOUS
370
    -3
390
4EB
  0
LAYER
  5
48
102
{ACAD_XDICTIONARY
360
534
102
}
330
2
100
AcDbSymbolTableRecord
100
AcDbLayerTableRecord
  2
33
 70
     0
 62
     7
  6
CONTINUOUS
370
    -3
390
4EB
  0
LAYER
  5
49
102
{ACAD_XDICTIONARY
360
536
102
}
330
2
100
AcDbSymbolTableRecord
100
AcDbLayerTableRecord
  2
34
 70
     0
 62
     7
  6
CONTINUOUS
370
    -3
390
4EB
  0
LAYER
  5
4A
102
{ACAD_XDICTIONARY
360
538
102
}
330
2
100
AcDbSymbolTableRecord
100
AcDbLayerTableRecord
  2
35
 70
     0
 62
     7
  6
CONTINUOUS
370
    -3
390
4EB
  0
LAYER
  5
4B
102
{ACAD_XDICTIONARY
360
53A
102
}
330
2
100
AcDbSymbolTableRecord
100
AcDbLayerTableRecord
  2
36
 70
     0
 62
     7
  6
CONTINUOUS
370
    -3
390
4EB
  0
LAYER
  5
4C
102
{ACAD_XDICTIONARY
360
53C
102
}
330
2
100
AcDbSymbolTableRecord
100
AcDbLayerTableRecord
  2
37
 70
     0
 62
     7
  6
CONTINUOUS
370
    -3
390
4EB
  0
LAYER
  5
4D
102
{ACAD_XDICTIONARY
360
53E
102
}
330
2
100
AcDbSymbolTableRecord
100
AcDbLayerTableRecord
  2
38
 70
     0
 62
     7
  6
CONTINUOUS
370
    -3
390
4EB
  0
LAYER
  5
4E
102
{ACAD_XDICTIONARY
360
540
102
}
330
2
100
AcDbSymbolTableRecord
100
AcDbLayerTableRecord
  2
39
 70
     0
 62
     7
  6
CONTINUOUS
370
    -3
390
4EB
  0
LAYER
  5
4F
102
{ACAD_XDICTIONARY
360
542
102
}
330
2
100
AcDbSymbolTableRecord
100
AcDbLayerTableRecord
  2
40
 70
     0
 62
     7
  6
CONTINUOUS
370
    -3
390
4EB
  0
LAYER
  5
50
102
{ACAD_XDICTIONARY
360
544
102
}
330
2
100
AcDbSymbolTableRecord
100
AcDbLayerTableRecord
  2
41
 70
     0
 62
     7
  6
CONTINUOUS
370
    -3
390
4EB
  0
LAYER
  5
51
102
{ACAD_XDICTIONARY
360
546
102
}
330
2
100
AcDbSymbolTableRecord
100
AcDbLayerTableRecord
  2
42
 70
     0
 62
     7
  6
CONTINUOUS
370
    -3
390
4EB
  0
LAYER
  5
52
102
{ACAD_XDICTIONARY
360
548
102
}
330
2
100
AcDbSymbolTableRecord
100
AcDbLayerTableRecord
  2
43
 70
     0
 62
     7
  6
CONTINUOUS
370
    -3
390
4EB
  0
LAYER
  5
53
102
{ACAD_XDICTIONARY
360
54A
102
}
330
2
100
AcDbSymbolTableRecord
100
AcDbLayerTableRecord
  2
44
 70
     0
 62
     7
  6
CONTINUOUS
370
    -3
390
4EB
  0
LAYER
  5
54
102
{ACAD_XDICTIONARY
360
54C
102
}
330
2
100
AcDbSymbolTableRecord
100
AcDbLayerTableRecord
  2
45
 70
     0
 62
     7
  6
CONTINUOUS
370
    -3
390
4EB
  0
LAYER
  5
55
102
{ACAD_XDICTIONARY
360
54E
102
}
330
2
100
AcDbSymbolTableRecord
100
AcDbLayerTableRecord
  2
46
 70
     0
 62
     7
  6
CONTINUOUS
370
    -3
390
4EB
  0
LAYER
  5
56
102
{ACAD_XDICTIONARY
360
550
102
}
330
2
100
AcDbSymbolTableRecord
100
AcDbLayerTableRecord
  2
47
 70
     0
 62
     7
  6
CONTINUOUS
370
    -3
390
4EB
  0
LAYER
  5
57
102
{ACAD_XDICTIONARY
360
552
102
}
330
2
100
AcDbSymbolTableRecord
100
AcDbLayerTableRecord
  2
48
 70
     0
 62
     7
  6
CONTINUOUS
370
    -3
390
4EB
  0
LAYER
  5
58
102
{ACAD_XDICTIONARY
360
554
102
}
330
2
100
AcDbSymbolTableRecord
100
AcDbLayerTableRecord
  2
49
 70
     0
 62
     7
  6
CONTINUOUS
370
    -3
390
4EB
  0
LAYER
  5
59
102
{ACAD_XDICTIONARY
360
556
102
}
330
2
100
AcDbSymbolTableRecord
100
AcDbLayerTableRecord
  2
50
 70
     0
 62
     7
  6
CONTINUOUS
370
    -3
390
4EB
  0
LAYER
  5
5A
102
{ACAD_XDICTIONARY
360
558
102
}
330
2
100
AcDbSymbolTableRecord
100
AcDbLayerTableRecord
  2
51
 70
     0
 62
     7
  6
CONTINUOUS
370
    -3
390
4EB
  0
LAYER
  5
5B
102
{ACAD_XDICTIONARY
360
55A
102
}
330
2
100
AcDbSymbolTableRecord
100
AcDbLayerTableRecord
  2
52
 70
     0
 62
     7
  6
CONTINUOUS
370
    -3
390
4EB
  0
LAYER
  5
5C
102
{ACAD_XDICTIONARY
360
55C
102
}
330
2
100
AcDbSymbolTableRecord
100
AcDbLayerTableRecord
  2
53
 70
     0
 62
     7
  6
CONTINUOUS
370
    -3
390
4EB
  0
LAYER
  5
5D
102
{ACAD_XDICTIONARY
360
55E
102
}
330
2
100
AcDbSymbolTableRecord
100
AcDbLayerTableRecord
  2
54
 70
     0
 62
     7
  6
CONTINUOUS
370
    -3
390
4EB
  0
LAYER
  5
5E
102
{ACAD_XDICTIONARY
360
560
102
}
330
2
100
AcDbSymbolTableRecord
100
AcDbLayerTableRecord
  2
55
 70
     0
 62
     7
  6
CONTINUOUS
370
    -3
390
4EB
  0
LAYER
  5
5F
102
{ACAD_XDICTIONARY
360
562
102
}
330
2
100
AcDbSymbolTableRecord
100
AcDbLayerTableRecord
  2
56
 70
     0
 62
     7
  6
CONTINUOUS
370
    -3
390
4EB
  0
LAYER
  5
60
102
{ACAD_XDICTIONARY
360
564
102
}
330
2
100
AcDbSymbolTableRecord
100
AcDbLayerTableRecord
  2
57
 70
     0
 62
     7
  6
CONTINUOUS
370
    -3
390
4EB
  0
LAYER
  5
61
102
{ACAD_XDICTIONARY
360
566
102
}
330
2
100
AcDbSymbolTableRecord
100
AcDbLayerTableRecord
  2
58
 70
     0
 62
     7
  6
CONTINUOUS
370
    -3
390
4EB
  0
LAYER
  5
62
102
{ACAD_XDICTIONARY
360
568
102
}
330
2
100
AcDbSymbolTableRecord
100
AcDbLayerTableRecord
  2
59
 70
     0
 62
     7
  6
CONTINUOUS
370
    -3
390
4EB
  0
LAYER
  5
63
102
{ACAD_XDICTIONARY
360
56A
102
}
330
2
100
AcDbSymbolTableRecord
100
AcDbLayerTableRecord
  2
60
 70
     0
 62
     7
  6
CONTINUOUS
370
    -3
390
4EB
  0
LAYER
  5
64
102
{ACAD_XDICTIONARY
360
56C
102
}
330
2
100
AcDbSymbolTableRecord
100
AcDbLayerTableRecord
  2
61
 70
     0
 62
     7
  6
CONTINUOUS
370
    -3
390
4EB
  0
LAYER
  5
65
102
{ACAD_XDICTIONARY
360
56E
102
}
330
2
100
AcDbSymbolTableRecord
100
AcDbLayerTableRecord
  2
62
 70
     0
 62
     7
  6
CONTINUOUS
370
    -3
390
4EB
  0
LAYER
  5
66
102
{ACAD_XDICTIONARY
360
570
102
}
330
2
100
AcDbSymbolTableRecord
100
AcDbLayerTableRecord
  2
63
 70
     0
 62
     7
  6
CONTINUOUS
370
    -3
390
4EB
  0
LAYER
  5
67
102
{ACAD_XDICTIONARY
360
572
102
}
330
2
100
AcDbSymbolTableRecord
100
AcDbLayerTableRecord
  2
64
 70
     0
 62
     7
  6
CONTINUOUS
370
    -3
390
4EB
  0
LAYER
  5
68
102
{ACAD_XDICTIONARY
360
574
102
}
330
2
100
AcDbSymbolTableRecord
100
AcDbLayerTableRecord
  2
65
 70
     0
 62
     7
  6
CONTINUOUS
370
    -3
390
4EB
  0
LAYER
  5
69
102
{ACAD_XDICTIONARY
360
576
102
}
330
2
100
AcDbSymbolTableRecord
100
AcDbLayerTableRecord
  2
66
 70
     0
 62
     7
  6
CONTINUOUS
370
    -3
390
4EB
  0
LAYER
  5
6A
102
{ACAD_XDICTIONARY
360
578
102
}
330
2
100
AcDbSymbolTableRecord
100
AcDbLayerTableRecord
  2
67
 70
     0
 62
     7
  6
CONTINUOUS
370
    -3
390
4EB
  0
LAYER
  5
6B
102
{ACAD_XDICTIONARY
360
57A
102
}
330
2
100
AcDbSymbolTableRecord
100
AcDbLayerTableRecord
  2
68
 70
     0
 62
     7
  6
CONTINUOUS
370
    -3
390
4EB
  0
LAYER
  5
6C
102
{ACAD_XDICTIONARY
360
57C
102
}
330
2
100
AcDbSymbolTableRecord
100
AcDbLayerTableRecord
  2
69
 70
     0
 62
     7
  6
CONTINUOUS
370
    -3
390
4EB
  0
LAYER
  5
6D
102
{ACAD_XDICTIONARY
360
57E
102
}
330
2
100
AcDbSymbolTableRecord
100
AcDbLayerTableRecord
  2
70
 70
     0
 62
     7
  6
CONTINUOUS
370
    -3
390
4EB
  0
LAYER
  5
6E
102
{ACAD_XDICTIONARY
360
580
102
}
330
2
100
AcDbSymbolTableRecord
100
AcDbLayerTableRecord
  2
71
 70
     0
 62
     7
  6
CONTINUOUS
370
    -3
390
4EB
  0
LAYER
  5
6F
102
{ACAD_XDICTIONARY
360
582
102
}
330
2
100
AcDbSymbolTableRecord
100
AcDbLayerTableRecord
  2
72
 70
     0
 62
     7
  6
CONTINUOUS
370
    -3
390
4EB
  0
LAYER
  5
70
102
{ACAD_XDICTIONARY
360
584
102
}
330
2
100
AcDbSymbolTableRecord
100
AcDbLayerTableRecord
  2
73
 70
     0
 62
     7
  6
CONTINUOUS
370
    -3
390
4EB
  0
LAYER
  5
71
102
{ACAD_XDICTIONARY
360
586
102
}
330
2
100
AcDbSymbolTableRecord
100
AcDbLayerTableRecord
  2
74
 70
     0
 62
     7
  6
CONTINUOUS
370
    -3
390
4EB
  0
LAYER
  5
72
102
{ACAD_XDICTIONARY
360
588
102
}
330
2
100
AcDbSymbolTableRecord
100
AcDbLayerTableRecord
  2
75
 70
     0
 62
     7
  6
CONTINUOUS
370
    -3
390
4EB
  0
LAYER
  5
73
102
{ACAD_XDICTIONARY
360
58A
102
}
330
2
100
AcDbSymbolTableRecord
100
AcDbLayerTableRecord
  2
76
 70
     0
 62
     7
  6
CONTINUOUS
370
    -3
390
4EB
  0
LAYER
  5
74
102
{ACAD_XDICTIONARY
360
58C
102
}
330
2
100
AcDbSymbolTableRecord
100
AcDbLayerTableRecord
  2
77
 70
     0
 62
     7
  6
CONTINUOUS
370
    -3
390
4EB
  0
LAYER
  5
75
102
{ACAD_XDICTIONARY
360
58E
102
}
330
2
100
AcDbSymbolTableRecord
100
AcDbLayerTableRecord
  2
78
 70
     0
 62
     7
  6
CONTINUOUS
370
    -3
390
4EB
  0
LAYER
  5
76
102
{ACAD_XDICTIONARY
360
590
102
}
330
2
100
AcDbSymbolTableRecord
100
AcDbLayerTableRecord
  2
79
 70
     0
 62
     7
  6
CONTINUOUS
370
    -3
390
4EB
  0
LAYER
  5
77
102
{ACAD_XDICTIONARY
360
592
102
}
330
2
100
AcDbSymbolTableRecord
100
AcDbLayerTableRecord
  2
80
 70
     0
 62
     7
  6
CONTINUOUS
370
    -3
390
4EB
  0
LAYER
  5
78
102
{ACAD_XDICTIONARY
360
594
102
}
330
2
100
AcDbSymbolTableRecord
100
AcDbLayerTableRecord
  2
81
 70
     0
 62
     7
  6
CONTINUOUS
370
    -3
390
4EB
  0
LAYER
  5
79
102
{ACAD_XDICTIONARY
360
596
102
}
330
2
100
AcDbSymbolTableRecord
100
AcDbLayerTableRecord
  2
82
 70
     0
 62
     7
  6
CONTINUOUS
370
    -3
390
4EB
  0
LAYER
  5
7A
102
{ACAD_XDICTIONARY
360
598
102
}
330
2
100
AcDbSymbolTableRecord
100
AcDbLayerTableRecord
  2
83
 70
     0
 62
     7
  6
CONTINUOUS
370
    -3
390
4EB
  0
LAYER
  5
7B
102
{ACAD_XDICTIONARY
360
59A
102
}
330
2
100
AcDbSymbolTableRecord
100
AcDbLayerTableRecord
  2
84
 70
     0
 62
     7
  6
CONTINUOUS
370
    -3
390
4EB
  0
LAYER
  5
7C
102
{ACAD_XDICTIONARY
360
59C
102
}
330
2
100
AcDbSymbolTableRecord
100
AcDbLayerTableRecord
  2
85
 70
     0
 62
     7
  6
CONTINUOUS
370
    -3
390
4EB
  0
LAYER
  5
7D
102
{ACAD_XDICTIONARY
360
59E
102
}
330
2
100
AcDbSymbolTableRecord
100
AcDbLayerTableRecord
  2
86
 70
     0
 62
     7
  6
CONTINUOUS
370
    -3
390
4EB
  0
LAYER
  5
7E
102
{ACAD_XDICTIONARY
360
5A0
102
}
330
2
100
AcDbSymbolTableRecord
100
AcDbLayerTableRecord
  2
87
 70
     0
 62
     7
  6
CONTINUOUS
370
    -3
390
4EB
  0
LAYER
  5
7F
102
{ACAD_XDICTIONARY
360
5A2
102
}
330
2
100
AcDbSymbolTableRecord
100
AcDbLayerTableRecord
  2
88
 70
     0
 62
     7
  6
CONTINUOUS
370
    -3
390
4EB
  0
LAYER
  5
80
102
{ACAD_XDICTIONARY
360
5A4
102
}
330
2
100
AcDbSymbolTableRecord
100
AcDbLayerTableRecord
  2
89
 70
     0
 62
     7
  6
CONTINUOUS
370
    -3
390
4EB
  0
LAYER
  5
81
102
{ACAD_XDICTIONARY
360
5A6
102
}
330
2
100
AcDbSymbolTableRecord
100
AcDbLayerTableRecord
  2
90
 70
     0
 62
     7
  6
CONTINUOUS
370
    -3
390
4EB
  0
LAYER
  5
82
102
{ACAD_XDICTIONARY
360
5A8
102
}
330
2
100
AcDbSymbolTableRecord
100
AcDbLayerTableRecord
  2
91
 70
     0
 62
     7
  6
CONTINUOUS
370
    -3
390
4EB
  0
LAYER
  5
83
102
{ACAD_XDICTIONARY
360
5AA
102
}
330
2
100
AcDbSymbolTableRecord
100
AcDbLayerTableRecord
  2
92
 70
     0
 62
     7
  6
CONTINUOUS
370
    -3
390
4EB
  0
LAYER
  5
84
102
{ACAD_XDICTIONARY
360
5AC
102
}
330
2
100
AcDbSymbolTableRecord
100
AcDbLayerTableRecord
  2
93
 70
     0
 62
     7
  6
CONTINUOUS
370
    -3
390
4EB
  0
LAYER
  5
85
102
{ACAD_XDICTIONARY
360
5AE
102
}
330
2
100
AcDbSymbolTableRecord
100
AcDbLayerTableRecord
  2
94
 70
     0
 62
     7
  6
CONTINUOUS
370
    -3
390
4EB
  0
LAYER
  5
86
102
{ACAD_XDICTIONARY
360
5B0
102
}
330
2
100
AcDbSymbolTableRecord
100
AcDbLayerTableRecord
  2
95
 70
     0
 62
     7
  6
CONTINUOUS
370
    -3
390
4EB
  0
LAYER
  5
87
102
{ACAD_XDICTIONARY
360
5B2
102
}
330
2
100
AcDbSymbolTableRecord
100
AcDbLayerTableRecord
  2
96
 70
     0
 62
     7
  6
CONTINUOUS
370
    -3
390
4EB
  0
LAYER
  5
88
102
{ACAD_XDICTIONARY
360
5B4
102
}
330
2
100
AcDbSymbolTableRecord
100
AcDbLayerTableRecord
  2
97
 70
     0
 62
     7
  6
CONTINUOUS
370
    -3
390
4EB
  0
LAYER
  5
89
102
{ACAD_XDICTIONARY
360
5B6
102
}
330
2
100
AcDbSymbolTableRecord
100
AcDbLayerTableRecord
  2
98
 70
     0
 62
     7
  6
CONTINUOUS
370
    -3
390
4EB
  0
LAYER
  5
8A
102
{ACAD_XDICTIONARY
360
5B8
102
}
330
2
100
AcDbSymbolTableRecord
100
AcDbLayerTableRecord
  2
99
 70
     0
 62
     7
  6
CONTINUOUS
370
    -3
390
4EB
  0
LAYER
  5
8B
102
{ACAD_XDICTIONARY
360
5BA
102
}
330
2
100
AcDbSymbolTableRecord
100
AcDbLayerTableRecord
  2
100
 70
     0
 62
     7
  6
CONTINUOUS
370
    -3
390
4EB
  0
LAYER
  5
8C
102
{ACAD_XDICTIONARY
360
5BC
102
}
330
2
100
AcDbSymbolTableRecord
100
AcDbLayerTableRecord
  2
101
 70
     0
 62
     7
  6
CONTINUOUS
370
    -3
390
4EB
  0
LAYER
  5
8D
102
{ACAD_XDICTIONARY
360
5BE
102
}
330
2
100
AcDbSymbolTableRecord
100
AcDbLayerTableRecord
  2
102
 70
     0
 62
     7
  6
CONTINUOUS
370
    -3
390
4EB
  0
LAYER
  5
8E
102
{ACAD_XDICTIONARY
360
5C0
102
}
330
2
100
AcDbSymbolTableRecord
100
AcDbLayerTableRecord
  2
103
 70
     0
 62
     7
  6
CONTINUOUS
370
    -3
390
4EB
  0
LAYER
  5
8F
102
{ACAD_XDICTIONARY
360
5C2
102
}
330
2
100
AcDbSymbolTableRecord
100
AcDbLayerTableRecord
  2
104
 70
     0
 62
     7
  6
CONTINUOUS
370
    -3
390
4EB
  0
LAYER
  5
90
102
{ACAD_XDICTIONARY
360
5C4
102
}
330
2
100
AcDbSymbolTableRecord
100
AcDbLayerTableRecord
  2
105
 70
     0
 62
     7
  6
CONTINUOUS
370
    -3
390
4EB
  0
LAYER
  5
91
102
{ACAD_XDICTIONARY
360
5C6
102
}
330
2
100
AcDbSymbolTableRecord
100
AcDbLayerTableRecord
  2
106
 70
     0
 62
     7
  6
CONTINUOUS
370
    -3
390
4EB
  0
LAYER
  5
92
102
{ACAD_XDICTIONARY
360
5C8
102
}
330
2
100
AcDbSymbolTableRecord
100
AcDbLayerTableRecord
  2
107
 70
     0
 62
     7
  6
CONTINUOUS
370
    -3
390
4EB
  0
LAYER
  5
93
102
{ACAD_XDICTIONARY
360
5CA
102
}
330
2
100
AcDbSymbolTableRecord
100
AcDbLayerTableRecord
  2
108
 70
     0
 62
     7
  6
CONTINUOUS
370
    -3
390
4EB
  0
LAYER
  5
94
102
{ACAD_XDICTIONARY
360
5CC
102
}
330
2
100
AcDbSymbolTableRecord
100
AcDbLayerTableRecord
  2
109
 70
     0
 62
     7
  6
CONTINUOUS
370
    -3
390
4EB
  0
LAYER
  5
95
102
{ACAD_XDICTIONARY
360
5CE
102
}
330
2
100
AcDbSymbolTableRecord
100
AcDbLayerTableRecord
  2
110
 70
     0
 62
     7
  6
CONTINUOUS
370
    -3
390
4EB
  0
LAYER
  5
96
102
{ACAD_XDICTIONARY
360
5D0
102
}
330
2
100
AcDbSymbolTableRecord
100
AcDbLayerTableRecord
  2
111
 70
     0
 62
     7
  6
CONTINUOUS
370
    -3
390
4EB
  0
LAYER
  5
97
102
{ACAD_XDICTIONARY
360
5D2
102
}
330
2
100
AcDbSymbolTableRecord
100
AcDbLayerTableRecord
  2
112
 70
     0
 62
     7
  6
CONTINUOUS
370
    -3
390
4EB
  0
LAYER
  5
98
102
{ACAD_XDICTIONARY
360
5D4
102
}
330
2
100
AcDbSymbolTableRecord
100
AcDbLayerTableRecord
  2
113
 70
     0
 62
     7
  6
CONTINUOUS
370
    -3
390
4EB
  0
LAYER
  5
99
102
{ACAD_XDICTIONARY
360
5D6
102
}
330
2
100
AcDbSymbolTableRecord
100
AcDbLayerTableRecord
  2
114
 70
     0
 62
     7
  6
CONTINUOUS
370
    -3
390
4EB
  0
LAYER
  5
9A
102
{ACAD_XDICTIONARY
360
5D8
102
}
330
2
100
AcDbSymbolTableRecord
100
AcDbLayerTableRecord
  2
115
 70
     0
 62
     7
  6
CONTINUOUS
370
    -3
390
4EB
  0
LAYER
  5
9B
102
{ACAD_XDICTIONARY
360
5DA
102
}
330
2
100
AcDbSymbolTableRecord
100
AcDbLayerTableRecord
  2
116
 70
     0
 62
     7
  6
CONTINUOUS
370
    -3
390
4EB
  0
LAYER
  5
9C
102
{ACAD_XDICTIONARY
360
5DC
102
}
330
2
100
AcDbSymbolTableRecord
100
AcDbLayerTableRecord
  2
117
 70
     0
 62
     7
  6
CONTINUOUS
370
    -3
390
4EB
  0
LAYER
  5
9D
102
{ACAD_XDICTIONARY
360
5DE
102
}
330
2
100
AcDbSymbolTableRecord
100
AcDbLayerTableRecord
  2
118
 70
     0
 62
     7
  6
CONTINUOUS
370
    -3
390
4EB
  0
LAYER
  5
9E
102
{ACAD_XDICTIONARY
360
5E0
102
}
330
2
100
AcDbSymbolTableRecord
100
AcDbLayerTableRecord
  2
119
 70
     0
 62
     7
  6
CONTINUOUS
370
    -3
390
4EB
  0
LAYER
  5
9F
102
{ACAD_XDICTIONARY
360
5E2
102
}
330
2
100
AcDbSymbolTableRecord
100
AcDbLayerTableRecord
  2
120
 70
     0
 62
     7
  6
CONTINUOUS
370
    -3
390
4EB
  0
LAYER
  5
A0
102
{ACAD_XDICTIONARY
360
5E4
102
}
330
2
100
AcDbSymbolTableRecord
100
AcDbLayerTableRecord
  2
121
 70
     0
 62
     7
  6
CONTINUOUS
370
    -3
390
4EB
  0
LAYER
  5
A1
102
{ACAD_XDICTIONARY
360
5E6
102
}
330
2
100
AcDbSymbolTableRecord
100
AcDbLayerTableRecord
  2
122
 70
     0
 62
     7
  6
CONTINUOUS
370
    -3
390
4EB
  0
LAYER
  5
A2
102
{ACAD_XDICTIONARY
360
5E8
102
}
330
2
100
AcDbSymbolTableRecord
100
AcDbLayerTableRecord
  2
123
 70
     0
 62
     7
  6
CONTINUOUS
370
    -3
390
4EB
  0
LAYER
  5
A3
102
{ACAD_XDICTIONARY
360
5EA
102
}
330
2
100
AcDbSymbolTableRecord
100
AcDbLayerTableRecord
  2
124
 70
     0
 62
     7
  6
CONTINUOUS
370
    -3
390
4EB
  0
LAYER
  5
A4
102
{ACAD_XDICTIONARY
360
5EC
102
}
330
2
100
AcDbSymbolTableRecord
100
AcDbLayerTableRecord
  2
125
 70
     0
 62
     7
  6
CONTINUOUS
370
    -3
390
4EB
  0
LAYER
  5
A5
102
{ACAD_XDICTIONARY
360
5EE
102
}
330
2
100
AcDbSymbolTableRecord
100
AcDbLayerTableRecord
  2
126
 70
     0
 62
     7
  6
CONTINUOUS
370
    -3
390
4EB
  0
LAYER
  5
A6
102
{ACAD_XDICTIONARY
360
5F0
102
}
330
2
100
AcDbSymbolTableRecord
100
AcDbLayerTableRecord
  2
127
 70
     0
 62
     7
  6
CONTINUOUS
370
    -3
390
4EB
  0
ENDTAB
  0
TABLE
  2
STYLE
  5
3
330
0
100
AcDbSymbolTable
 70
     9
  0
STYLE
  5
11
330
3
100
AcDbSymbolTableRecord
100
AcDbTextStyleTableRecord
  2
STANDARD
 70
     0
 40
0.0
 41
1.0
 50
0.0
 71
     0
 42
0.2
  3
txt
  4

  0
STYLE
  5
A8
330
3
100
AcDbSymbolTableRecord
100
AcDbTextStyleTableRecord
  2
KANJI0
 70
     0
 40
2.5
 41
0.8
 50
0.0
 71
     0
 42
2.5
  3

  4
bigfont
  0
STYLE
  5
A9
330
3
100
AcDbSymbolTableRecord
100
AcDbTextStyleTableRecord
  2
KANJI1
 70
     0
 40
4.511999999999999
 41
0.875
 50
0.0
 71
     0
 42
4.511999999999999
  3

  4
bigfont
  0
STYLE
  5
AA
330
3
100
AcDbSymbolTableRecord
100
AcDbTextStyleTableRecord
  2
KANJI2
 70
     0
 40
4.934999999999999
 41
0.8599999999999999
 50
0.0
 71
     0
 42
4.934999999999999
  3

  4
bigfont
  0
STYLE
  5
AB
330
3
100
AcDbSymbolTableRecord
100
AcDbTextStyleTableRecord
  2
KANJI3
 70
     0
 40
2.961
 41
0.375
 50
0.0
 71
     0
 42
2.961
  3

  4
bigfont
  0
STYLE
  5
AC
330
3
100
AcDbSymbolTableRecord
100
AcDbTextStyleTableRecord
  2
KANJI4
 70
     0
 40
2.961
 41
0.533333333
 50
0.0
 71
     0
 42
2.961
  3

  4
bigfont
  0
STYLE
  5
AD
330
3
100
AcDbSymbolTableRecord
100
AcDbTextStyleTableRecord
  2
KANJI5
 70
     0
 40
1.5
 41
0.8
 50
0.0
 71
     0
 42
1.5
  3

  4
bigfont
  0
STYLE
  5
AE
330
3
100
AcDbSymbolTableRecord
100
AcDbTextStyleTableRecord
  2
KANJI6
 70
     0
 40
2.961
 41
0.75
 50
0.0
 71
     0
 42
2.961
  3

  4
bigfont
  0
STYLE
  5
AF
330
3
100
AcDbSymbolTableRecord
100
AcDbTextStyleTableRecord
  2
KANJI7
 70
     0
 40
2.961
 41
1.066666667
 50
0.0
 71
     0
 42
2.961
  3

  4
bigfont
  0
ENDTAB
  0
TABLE
  2
VIEW
  5
6
330
0
100
AcDbSymbolTable
 70
     0
  0
ENDTAB
  0
TABLE
  2
UCS
  5
7
330
0
100
AcDbSymbolTable
 70
     0
  0
ENDTAB
  0
TABLE
  2
APPID
  5
9
330
0
100
AcDbSymbolTable
 70
     2
  0
APPID
  5
12
330
9
100
AcDbSymbolTableRecord
100
AcDbRegAppTableRecord
  2
ACAD
 70
     0
  0
APPID
  5
632
330
9
100
AcDbSymbolTableRecord
100
AcDbRegAppTableRecord
  2
ACAD_MLEADERVER
 70
     0
  0
ENDTAB
  0
TABLE
  2
DIMSTYLE
  5
A
330
0
100
AcDbSymbolTable
 70
     1
100
AcDbDimStyleTable
 71
     0
  0
DIMSTYLE
105
B0
330
A
100
AcDbSymbolTableRecord
100
AcDbDimStyleTableRecord
  2
STANDARD
 70
     0
340
11
  0
ENDTAB
  0
TABLE
  2
BLOCK_RECORD
  5
1
330
0
100
AcDbSymbolTable
 70
     0
  0
BLOCK_RECORD
  5
1D
330
1
100
AcDbSymbolTableRecord
100
AcDbBlockTableRecord
  2
*MODEL_SPACE
340
4EE
  0
BLOCK_RECORD
  5
1B
330
1
100
AcDbSymbolTableRecord
100
AcDbBlockTableRecord
  2
*PAPER_SPACE
340
4EF
  0
ENDTAB
  0
ENDSEC
  0
SECTION
  2
BLOCKS
  0
BLOCK
  5
479
330
1D
100
AcDbEntity
  8
0
100
AcDbBlockBegin
  2
*MODEL_SPACE
 70
     0
 10
0.0
 20
0.0
 30
0.0
  3
*MODEL_SPACE
  1

  0
ENDBLK
  5
47A
330
1D
100
AcDbEntity
  8
0
100
AcDbBlockEnd
  0
BLOCK
  5
47B
330
1B
100
AcDbEntity
 67
     1
  8
0
100
AcDbBlockBegin
  2
*PAPER_SPACE
 70
     0
 10
0.0
 20
0.0
 30
0.0
  3
*PAPER_SPACE
  1

  0
ENDBLK
  5
47C
330
1B
100
AcDbEntity
 67
     1
  8
0
100
AcDbBlockEnd
  0
ENDSEC
  0
SECTION
  2
ENTITIES
  0
LWPOLYLINE
  5
B2
330
1D
100
AcDbEntity
  8
0
  6
Continuous
 62
     1
380
     2
100
AcDbPolyline
 90
        3
 70
     0
 43
0.0
 10
3.329982210498351E+99
 20
1.269263905633295E+99
 10
3.329982210498351E+99
 20
1.269263905633295E+99
 10
3.329982210498351E+99
 20
1.269263905633295E+99
  0
POINT
  5
B7
330
1D
100
AcDbEntity
  8
0
  6
Continuous
 62
     1
380
     2
100
AcDbPoint
 10
-1.558815053331238E+64
 20
-5.941616374145988E+73
 30
0.0
  0
POINT
  5
B8
330
1D
100
AcDbEntity
  8
0
  6
Continuous
 62
     1
380
     2
100
AcDbPoint
 10
-1.558815053331238E+64
 20
-5.941616374145988E+73
 30
0.0
  0
POINT
  5
B9
330
1D
100
AcDbEntity
  8
0
  6
Continuous
 62
     1
380
     2
100
AcDbPoint
 10
3.329982210498351E+99
 20
1.269263905633295E+99
 30
0.0
  0
POINT
  5
BA
330
1D
100
AcDbEntity
  8
0
  6
Continuous
 62
     1
380
     2
100
AcDbPoint
 10
3.329982210498351E+99
 20
1.269263905633295E+99
 30
0.0
  0
POINT
  5
BB
330
1D
100
AcDbEntity
  8
0
  6
Continuous
 62
     1
380
     2
100
AcDbPoint
 10
-1.558815053331238E+64
 20
-5.941616374145988E+73
 30
0.0
  0
POINT
  5
BC
330
1D
100
AcDbEntity
  8
0
  6
Continuous
 62
     1
380
     2
100
AcDbPoint
 10
-1.558815053331238E+64
 20
-5.941616374145988E+73
 30
0.0
  0
POINT
  5
BD
330
1D
100
AcDbEntity
  8
0
  6
Continuous
 62
     1
380
     2
100
AcDbPoint
 10
3.329982210498351E+99
 20
1.269263905633295E+99
 30
0.0
  0
POINT
  5
BE
330
1D
100
AcDbEntity
  8
0
  6
Continuous
 62
     1
380
     2
100
AcDbPoint
 10
3.329982210498351E+99
 20
1.269263905633295E+99
 30
0.0
  0
POINT
  5
BF
330
1D
100
AcDbEntity
  8
0
  6
Continuous
 62
     1
380
     2
100
AcDbPoint
 10
-1.558815053331238E+64
 20
-5.941616374145988E+73
 30
0.0
  0
POINT
  5
C0
330
1D
100
AcDbEntity
  8
0
  6
Continuous
 62
     1
380
     2
100
AcDbPoint
 10
-1.558815053331238E+64
 20
-5.941616374145988E+73
 30
0.0
  0
POINT
  5
C1
330
1D
100
AcDbEntity
  8
0
  6
Continuous
 62
     1
380
     2
100
AcDbPoint
 10
3.329982210498351E+99
 20
1.269263905633295E+99
 30
0.0
  0
POINT
  5
C2
330
1D
100
AcDbEntity
  8
0
  6
Continuous
 62
     1
380
     2
100
AcDbPoint
 10
3.329982210498351E+99
 20
1.269263905633295E+99
 30
0.0
  0
POINT
  5
C3
330
1D
100
AcDbEntity
  8
0
  6
Continuous
 62
     1
380
     2
100
AcDbPoint
 10
-1.558815053331238E+64
 20
-5.941616374145988E+73
 30
0.0
  0
POINT
  5
C4
330
1D
100
AcDbEntity
  8
0
  6
Continuous
 62
     1
380
     2
100
AcDbPoint
 10
-1.558815053331238E+64
 20
-5.941616374145988E+73
 30
0.0
  0
LINE
  5
C5
330
1D
100
AcDbEntity
  8
0
  6
LTYPE1
 62
     3
380
     2
100
AcDbLine
 10
113.227118643
 20
167.527118607
 30
0.0
 11
113.227118634
 21
133.650000001
 31
0.0
  0
LINE
  5
C6
330
1D
100
AcDbEntity
  8
0
  6
Continuous
 62
     4
380
     2
100
AcDbLine
 10
125.906791006
 20
90.26772623899999
 30
0.0
 11
125.920791006
 21
90.256230304
 31
0.0
  0
POINT
  5
C7
330
1D
100
AcDbEntity
  8
0
  6
Continuous
 62
     3
380
     2
100
AcDbPoint
 10
55.727118609
 20
125.327118622
 30
0.0
  0
LINE
  5
C8
330
1D
100
AcDbEntity
  8
0
  6
Continuous
 62
     3
380
     2
100
AcDbLine
 10
61.727118608
 20
129.577118623
 30
0.0
 11
61.727118608
 21
129.827118623
 31
0.0
  0
LINE
  5
C9
330
1D
100
AcDbEntity
  8
0
  6
LTYPE1
 62
     3
380
     2
100
AcDbLine
 10
55.727118602
 20
150.9135593
 30
0.0
 11
55.727118598
 21
166.877118623
 31
0.0
  0
LINE
  5
CA
330
1D
100
AcDbEntity
  8
0
  6
LTYPE1
 62
     3
380
     2
100
AcDbLine
 10
55.727118605
 20
139.7635593
 30
0.0
 11
55.727118603
 21
149.1385593
 31
0.0
  0
LINE
  5
CB
330
1D
100
AcDbEntity
  8
0
  6
LTYPE1
 62
     3
380
     2
100
AcDbLine
 10
55.72711861
 20
120.427118622
 30
0.0
 11
55.72711860600001
 21
137.5135593
 31
0.0
  0
LINE
  5
CC
330
1D
100
AcDbEntity
  8
0
  6
LTYPE1
 62
     3
380
     2
100
AcDbLine
 10
113.227118644
 20
197.977118605
 30
0.0
 11
113.227118644
 21
200.227118605
 31
0.0
  0
LINE
  5
CD
330
1D
100
AcDbEntity
  8
2
  6
LTYPE1
 62
     3
380
     2
100
AcDbLine
 10
102.577118647
 20
213.299999971
 30
0.0
 11
103.132118655
 21
213.299999971
 31
0.0
  0
LINE
  5
CE
330
1D
100
AcDbEntity
  8
0
  6
LTYPE1
 62
     3
380
     2
100
AcDbLine
 10
171.77288139
 20
120.0
 30
0.0
 11
171.772881397
 21
149.1385593
 31
0.0
  0
LINE
  5
CF
330
1D
100
AcDbEntity
  8
0
  6
LTYPE1
 62
     3
380
     2
100
AcDbLine
 10
113.227118642
 20
165.177118607
 30
0.0
 11
113.227118648
 21
197.9
 31
0.0
  0
LINE
  5
D0
330
1D
100
AcDbEntity
  8
0
  6
Continuous
 62
     3
380
     2
100
AcDbLine
 10
88.2
 20
91.98
 30
0.0
 11
71.2
 21
91.98
 31
0.0
  0
LINE
  5
D1
330
1D
100
AcDbEntity
  8
0
  6
Continuous
 62
     3
380
     2
100
AcDbLine
 10
72.2
 20
91.98
 30
0.0
 11
71.68236191
 21
90.04814834700001
 31
0.0
  0
LINE
  5
D2
330
1D
100
AcDbEntity
  8
0
  6
Continuous
 62
     3
380
     2
100
AcDbLine
 10
72.2
 20
91.98
 30
0.0
 11
72.71763808999999
 21
90.04814834700001
 31
0.0
  0
LINE
  5
D3
330
1D
100
AcDbEntity
  8
0
  6
Continuous
 62
     3
380
     2
100
AcDbLine
 10
72.2
 20
91.98
 30
0.0
 11
72.2
 21
67.98
 31
0.0
  0
LINE
  5
D4
330
1D
100
AcDbEntity
  8
0
  6
Continuous
 62
     3
380
     2
100
AcDbLine
 10
72.2
 20
67.98
 30
0.0
 11
72.71763808999999
 21
69.911851653
 31
0.0
  0
LINE
  5
D5
330
1D
100
AcDbEntity
  8
0
  6
Continuous
 62
     3
380
     2
100
AcDbLine
 10
72.2
 20
67.98
 30
0.0
 11
71.68236191
 21
69.911851653
 31
0.0
  0
LINE
  5
D6
330
1D
100
AcDbEntity
  8
0
  6
Continuous
 62
     3
380
     2
100
AcDbLine
 10
88.2
 20
67.98
 30
0.0
 11
71.2
 21
67.98
 31
0.0
  0
TEXT
  5
D7
330
1D
100
AcDbEntity
  8
0
  6
Continuous
 62
     3
380
     2
100
AcDbText
 10
71.2
 20
77.83
 30
0.3
 40
2.5
  1
２４
 50
90.0
 41
0.8
  7
KANJI0
100
AcDbText
  0
LINE
  5
D8
330
1D
100
AcDbEntity
  8
0
  6
LTYPE1
 62
     3
380
     2
100
AcDbLine
 10
82.4
 20
79.98000000000001
 30
0.0
 11
146.8
 21
79.98000000000001
 31
0.0
  0
LINE
  5
D9
330
1D
100
AcDbEntity
  8
0
  6
LTYPE1
 62
     3
380
     2
100
AcDbLine
 10
113.227118633
 20
131.125000001
 30
0.0
 11
113.227118613
 21
53.04999999999999
 31
0.0
  0
LINE
  5
DA
330
1D
100
AcDbEntity
  8
0
  6
Continuous
 62
     3
380
     2
100
AcDbLine
 10
89.18000000000001
 20
92.9
 30
0.0
 11
89.18000000000001
 21
104.0
 31
0.0
  0
LINE
  5
DB
330
1D
100
AcDbEntity
  8
0
  6
Continuous
 62
     3
380
     2
100
AcDbLine
 10
89.18000000000001
 20
103.0
 30
0.0
 11
91.11185165299998
 21
102.48236191
 31
0.0
  0
LINE
  5
DC
330
1D
100
AcDbEntity
  8
0
  6
Continuous
 62
     3
380
     2
100
AcDbLine
 10
89.18000000000001
 20
103.0
 30
0.0
 11
91.11185165299998
 21
103.51763809
 31
0.0
  0
LINE
  5
DD
330
1D
100
AcDbEntity
  8
0
  6
Continuous
 62
     3
380
     2
100
AcDbLine
 10
89.18000000000001
 20
103.0
 30
0.0
 11
137.18
 21
103.0
 31
0.0
  0
LINE
  5
DE
330
1D
100
AcDbEntity
  8
0
  6
Continuous
 62
     3
380
     2
100
AcDbLine
 10
137.18
 20
103.0
 30
0.0
 11
135.248148347
 21
103.51763809
 31
0.0
  0
LINE
  5
DF
330
1D
100
AcDbEntity
  8
0
  6
Continuous
 62
     3
380
     2
100
AcDbLine
 10
137.18
 20
103.0
 30
0.0
 11
135.248148347
 21
102.48236191
 31
0.0
  0
LINE
  5
E0
330
1D
100
AcDbEntity
  8
0
  6
Continuous
 62
     3
380
     2
100
AcDbLine
 10
137.18
 20
92.9
 30
0.0
 11
137.18
 21
104.0
 31
0.0
  0
TEXT
  5
E1
330
1D
100
AcDbEntity
  8
0
  6
Continuous
 62
     3
380
     2
100
AcDbText
 10
111.03
 20
104.0
 30
0.3
 40
2.5
  1
４８
 41
0.8
  7
KANJI0
100
AcDbText
  0
LINE
  5
E2
330
1D
100
AcDbEntity
  8
0
  6
Continuous
 62
     3
380
     2
100
AcDbLine
 10
130.127118641
 20
159.327118602
 30
0.0
 11
131.577118641
 21
159.327118602
 31
0.0
  0
LINE
  5
E3
330
1D
100
AcDbEntity
  8
0
  6
Continuous
 62
     3
380
     2
100
AcDbLine
 10
130.727118641
 20
160.327118602
 30
0.0
 11
130.72711864
 21
158.327118602
 31
0.0
  0
LINE
  5
E4
330
1D
100
AcDbEntity
  8
0
  6
Continuous
 62
     3
380
     2
100
AcDbLine
 10
125.027118641
 20
159.327118604
 30
0.0
 11
126.477118641
 21
159.327118603
 31
0.0
  0
LINE
  5
E5
330
1D
100
AcDbEntity
  8
0
  6
Continuous
 62
     3
380
     2
100
AcDbLine
 10
125.727118641
 20
160.327118603
 30
0.0
 11
125.72711864
 21
158.327118603
 31
0.0
  0
LINE
  5
E6
330
1D
100
AcDbEntity
  8
0
  6
Continuous
 62
     3
380
     2
100
AcDbLine
 10
120.127118641
 20
159.327118605
 30
0.0
 11
121.577118641
 21
159.327118604
 31
0.0
  0
LINE
  5
E7
330
1D
100
AcDbEntity
  8
0
  6
Continuous
 62
     3
380
     2
100
AcDbLine
 10
120.827118641
 20
160.327118605
 30
0.0
 11
120.82711864
 21
158.327118605
 31
0.0
  0
LINE
  5
E8
330
1D
100
AcDbEntity
  8
0
  6
Continuous
 62
     3
380
     2
100
AcDbLine
 10
115.027118641
 20
159.327118606
 30
0.0
 11
116.477118641
 21
159.327118606
 31
0.0
  0
LINE
  5
E9
330
1D
100
AcDbEntity
  8
0
  6
Continuous
 62
     3
380
     2
100
AcDbLine
 10
115.727118641
 20
160.327118606
 30
0.0
 11
115.72711864
 21
158.327118606
 31
0.0
  0
LINE
  5
EA
330
1D
100
AcDbEntity
  8
0
  6
Continuous
 62
     3
380
     2
100
AcDbLine
 10
110.027118641
 20
159.327118607
 30
0.0
 11
111.477118641
 21
159.327118607
 31
0.0
  0
LINE
  5
EB
330
1D
100
AcDbEntity
  8
0
  6
Continuous
 62
     3
380
     2
100
AcDbLine
 10
110.727118641
 20
160.327118607
 30
0.0
 11
110.72711864
 21
158.327118607
 31
0.0
  0
LINE
  5
EC
330
1D
100
AcDbEntity
  8
0
  6
Continuous
 62
     3
380
     2
100
AcDbLine
 10
110.73
 20
160.55
 30
0.0
 11
110.73
 21
169.8
 31
0.0
  0
LINE
  5
ED
330
1D
100
AcDbEntity
  8
0
  6
Continuous
 62
     3
380
     2
100
AcDbLine
 10
110.73
 20
168.8
 30
0.0
 11
108.798148347
 21
169.31763809
 31
0.0
  0
LINE
  5
EE
330
1D
100
AcDbEntity
  8
0
  6
Continuous
 62
     3
380
     2
100
AcDbLine
 10
110.73
 20
168.8
 30
0.0
 11
108.798148347
 21
168.28236191
 31
0.0
  0
LINE
  5
EF
330
1D
100
AcDbEntity
  8
0
  6
Continuous
 62
     3
380
     2
100
AcDbLine
 10
107.73
 20
168.8
 30
0.0
 11
110.73
 21
168.8
 31
0.0
  0
LINE
  5
F0
330
1D
100
AcDbEntity
  8
0
  6
Continuous
 62
     3
380
     2
100
AcDbLine
 10
110.73
 20
168.8
 30
0.0
 11
113.23
 21
168.8
 31
0.0
  0
LINE
  5
F1
330
1D
100
AcDbEntity
  8
0
  6
Continuous
 62
     3
380
     2
100
AcDbLine
 10
113.23
 20
168.8
 30
0.0
 11
122.83
 21
168.8
 31
0.0
  0
LINE
  5
F2
330
1D
100
AcDbEntity
  8
0
  6
Continuous
 62
     3
380
     2
100
AcDbLine
 10
113.23
 20
168.8
 30
0.0
 11
115.161851653
 21
168.28236191
 31
0.0
  0
LINE
  5
F3
330
1D
100
AcDbEntity
  8
0
  6
Continuous
 62
     3
380
     2
100
AcDbLine
 10
113.23
 20
168.8
 30
0.0
 11
115.161851653
 21
169.31763809
 31
0.0
  0
TEXT
  5
F4
330
1D
100
AcDbEntity
  8
0
  6
Continuous
 62
     3
380
     2
100
AcDbText
 10
116.23
 20
169.8
 30
0.3
 40
2.5
  1
２．５
 41
0.8
  7
KANJI0
100
AcDbText
  0
LINE
  5
F5
330
1D
100
AcDbEntity
  8
0
  6
Continuous
 62
     3
380
     2
100
AcDbLine
 10
130.73
 20
160.35
 30
0.0
 11
130.73
 21
175.35
 31
0.0
  0
LINE
  5
F6
330
1D
100
AcDbEntity
  8
0
  6
Continuous
 62
     3
380
     2
100
AcDbLine
 10
130.73
 20
174.35
 30
0.0
 11
128.798148347
 21
174.86763809
 31
0.0
  0
LINE
  5
F7
330
1D
100
AcDbEntity
  8
0
  6
Continuous
 62
     3
380
     2
100
AcDbLine
 10
130.73
 20
174.35
 30
0.0
 11
128.798148347
 21
173.83236191
 31
0.0
  0
LINE
  5
F8
330
1D
100
AcDbEntity
  8
0
  6
Continuous
 62
     3
380
     2
100
AcDbLine
 10
130.73
 20
174.35
 30
0.0
 11
110.73
 21
174.35
 31
0.0
  0
LINE
  5
F9
330
1D
100
AcDbEntity
  8
0
  6
Continuous
 62
     3
380
     2
100
AcDbLine
 10
110.73
 20
174.35
 30
0.0
 11
112.661851653
 21
173.83236191
 31
0.0
  0
LINE
  5
FA
330
1D
100
AcDbEntity
  8
0
  6
Continuous
 62
     3
380
     2
100
AcDbLine
 10
110.73
 20
174.35
 30
0.0
 11
112.661851653
 21
174.86763809
 31
0.0
  0
LINE
  5
FB
330
1D
100
AcDbEntity
  8
0
  6
Continuous
 62
     3
380
     2
100
AcDbLine
 10
110.73
 20
169.85
 30
0.0
 11
110.73
 21
175.35
 31
0.0
  0
TEXT
  5
FC
330
1D
100
AcDbEntity
  8
0
  6
Continuous
 62
     3
380
     2
100
AcDbText
 10
114.08
 20
175.35
 30
0.3
 40
2.5
  1
５\U+00D7４＝２０
 41
0.8
  7
KANJI0
100
AcDbText
  0
LINE
  5
FD
330
1D
100
AcDbEntity
  8
0
  6
Continuous
 62
     3
380
     2
100
AcDbLine
 10
131.83
 20
159.3
 30
0.0
 11
144.33
 21
159.3
 31
0.0
  0
LINE
  5
FE
330
1D
100
AcDbEntity
  8
0
  6
Continuous
 62
     3
380
     2
100
AcDbLine
 10
143.33
 20
159.3
 30
0.0
 11
142.81236191
 21
157.368148347
 31
0.0
  0
LINE
  5
FF
330
1D
100
AcDbEntity
  8
0
  6
Continuous
 62
     3
380
     2
100
AcDbLine
 10
143.33
 20
159.3
 30
0.0
 11
143.84763809
 21
157.368148347
 31
0.0
  0
LINE
  5
100
330
1D
100
AcDbEntity
  8
0
  6
Continuous
 62
     3
380
     2
100
AcDbLine
 10
143.33
 20
156.3
 30
0.0
 11
143.33
 21
159.3
 31
0.0
  0
LINE
  5
101
330
1D
100
AcDbEntity
  8
0
  6
Continuous
 62
     3
380
     2
100
AcDbLine
 10
143.33
 20
159.3
 30
0.0
 11
143.33
 21
164.5
 31
0.0
  0
LINE
  5
102
330
1D
100
AcDbEntity
  8
0
  6
Continuous
 62
     3
380
     2
100
AcDbLine
 10
143.33
 20
164.5
 30
0.0
 11
143.33
 21
174.1
 31
0.0
  0
LINE
  5
103
330
1D
100
AcDbEntity
  8
0
  6
Continuous
 62
     3
380
     2
100
AcDbLine
 10
143.33
 20
164.5
 30
0.0
 11
143.84763809
 21
166.431851653
 31
0.0
  0
LINE
  5
104
330
1D
100
AcDbEntity
  8
0
  6
Continuous
 62
     3
380
     2
100
AcDbLine
 10
143.33
 20
164.5
 30
0.0
 11
142.81236191
 21
166.431851653
 31
0.0
  0
LINE
  5
105
330
1D
100
AcDbEntity
  8
0
  6
Continuous
 62
     3
380
     2
100
AcDbLine
 10
135.83
 20
164.5
 30
0.0
 11
144.33
 21
164.5
 31
0.0
  0
TEXT
  5
106
330
1D
100
AcDbEntity
  8
0
  6
Continuous
 62
     3
380
     2
100
AcDbText
 10
142.33
 20
167.5
 30
0.3
 40
2.5
  1
５．２
 50
90.0
 41
0.8
  7
KANJI0
100
AcDbText
  0
LINE
  5
107
330
1D
100
AcDbEntity
  8
0
  6
Continuous
 62
     3
380
     2
100
AcDbLine
 10
91.12999999999999
 20
165.5
 30
0.0
 11
91.12999999999999
 21
180.65
 31
0.0
  0
LINE
  5
108
330
1D
100
AcDbEntity
  8
0
  6
Continuous
 62
     3
380
     2
100
AcDbLine
 10
91.12999999999999
 20
179.65
 30
0.0
 11
93.06185165299998
 21
179.13236191
 31
0.0
  0
LINE
  5
109
330
1D
100
AcDbEntity
  8
0
  6
Continuous
 62
     3
380
     2
100
AcDbLine
 10
91.12999999999999
 20
179.65
 30
0.0
 11
93.06185165299998
 21
180.16763809
 31
0.0
  0
LINE
  5
10A
330
1D
100
AcDbEntity
  8
0
  6
Continuous
 62
     3
380
     2
100
AcDbLine
 10
91.12999999999999
 20
179.65
 30
0.0
 11
135.23
 21
179.65
 31
0.0
  0
LINE
  5
10B
330
1D
100
AcDbEntity
  8
0
  6
Continuous
 62
     3
380
     2
100
AcDbLine
 10
135.23
 20
179.65
 30
0.0
 11
133.298148347
 21
180.16763809
 31
0.0
  0
LINE
  5
10C
330
1D
100
AcDbEntity
  8
0
  6
Continuous
 62
     3
380
     2
100
AcDbLine
 10
135.23
 20
179.65
 30
0.0
 11
133.298148347
 21
179.13236191
 31
0.0
  0
LINE
  5
10D
330
1D
100
AcDbEntity
  8
0
  6
Continuous
 62
     3
380
     2
100
AcDbLine
 10
135.23
 20
165.5
 30
0.0
 11
135.23
 21
180.65
 31
0.0
  0
TEXT
  5
10E
330
1D
100
AcDbEntity
  8
0
  6
Continuous
 62
     3
380
     2
100
AcDbText
 10
111.03
 20
180.65
 30
0.3
 40
2.5
  1
４４
 41
0.8
  7
KANJI0
100
AcDbText
  0
LINE
  5
10F
330
1D
100
AcDbEntity
  8
0
  6
Continuous
 62
     3
380
     2
100
AcDbLine
 10
96.627118655
 20
214.099999973
 30
0.0
 11
98.227118655
 21
214.099999973
 31
0.0
  0
LINE
  5
110
330
1D
100
AcDbEntity
  8
0
  6
Continuous
 62
     3
380
     2
100
AcDbLine
 10
97.227118655
 20
215.299999973
 30
0.0
 11
97.227118655
 21
212.899999973
 31
0.0
  0
LINE
  5
111
330
1D
100
AcDbEntity
  8
0
  6
Continuous
 62
     3
380
     2
100
AcDbLine
 10
110.727118656
 20
216.49999997
 30
0.0
 11
110.727118655
 21
214.69999997
 31
0.0
  0
LINE
  5
112
330
1D
100
AcDbEntity
  8
0
  6
Continuous
 62
     3
380
     2
100
AcDbLine
 10
110.087118655
 20
215.69999997
 30
0.0
 11
111.467118655
 21
215.699999969
 31
0.0
  0
LINE
  5
113
330
1D
100
AcDbEntity
  8
0
  6
Continuous
 62
     3
380
     2
100
AcDbLine
 10
115.727118656
 20
216.499999968
 30
0.0
 11
115.727118655
 21
214.699999968
 31
0.0
  0
LINE
  5
114
330
1D
100
AcDbEntity
  8
0
  6
Continuous
 62
     3
380
     2
100
AcDbLine
 10
115.087118655
 20
215.699999968
 30
0.0
 11
116.467118655
 21
215.699999968
 31
0.0
  0
LINE
  5
115
330
1D
100
AcDbEntity
  8
0
  6
Continuous
 62
     3
380
     2
100
AcDbLine
 10
120.087118655
 20
215.699999967
 30
0.0
 11
121.467118655
 21
215.699999967
 31
0.0
  0
LINE
  5
116
330
1D
100
AcDbEntity
  8
0
  6
Continuous
 62
     3
380
     2
100
AcDbLine
 10
120.727118656
 20
216.7
 30
0.0
 11
120.727118655
 21
214.699999967
 31
0.0
  0
LINE
  5
117
330
1D
100
AcDbEntity
  8
0
  6
Continuous
 62
     3
380
     2
100
AcDbLine
 10
125.727118656
 20
216.499999966
 30
0.0
 11
125.727118655
 21
214.699999966
 31
0.0
  0
LINE
  5
118
330
1D
100
AcDbEntity
  8
0
  6
Continuous
 62
     3
380
     2
100
AcDbLine
 10
125.087118655
 20
215.699999966
 30
0.0
 11
126.467118655
 21
215.699999965
 31
0.0
  0
LINE
  5
119
330
1D
100
AcDbEntity
  8
0
  6
Continuous
 62
     3
380
     2
100
AcDbLine
 10
130.727118656
 20
216.499999964
 30
0.0
 11
130.727118655
 21
214.699999964
 31
0.0
  0
LINE
  5
11A
330
1D
100
AcDbEntity
  8
0
  6
Continuous
 62
     3
380
     2
100
AcDbLine
 10
130.087118655
 20
215.699999964
 30
0.0
 11
131.467118655
 21
215.699999964
 31
0.0
  0
LINE
  5
11B
330
1D
100
AcDbEntity
  8
0
  6
Continuous
 62
     3
380
     2
100
AcDbLine
 10
143.58
 20
213.3
 30
0.0
 11
143.06236191
 21
211.368148347
 31
0.0
  0
LINE
  5
11C
330
1D
100
AcDbEntity
  8
0
  6
Continuous
 62
     3
380
     2
100
AcDbLine
 10
143.58
 20
213.3
 30
0.0
 11
144.09763809
 21
211.368148347
 31
0.0
  0
LINE
  5
11D
330
1D
100
AcDbEntity
  8
0
  6
Continuous
 62
     3
380
     2
100
AcDbLine
 10
143.58
 20
210.3
 30
0.0
 11
143.58
 21
213.3
 31
0.0
  0
LINE
  5
11E
330
1D
100
AcDbEntity
  8
0
  6
Continuous
 62
     3
380
     2
100
AcDbLine
 10
143.58
 20
213.3
 30
0.0
 11
143.58
 21
215.7
 31
0.0
  0
LINE
  5
11F
330
1D
100
AcDbEntity
  8
0
  6
Continuous
 62
     3
380
     2
100
AcDbLine
 10
143.58
 20
215.7
 30
0.0
 11
143.58
 21
225.3
 31
0.0
  0
LINE
  5
120
330
1D
100
AcDbEntity
  8
0
  6
Continuous
 62
     3
380
     2
100
AcDbLine
 10
143.58
 20
215.7
 30
0.0
 11
144.09763809
 21
217.631851653
 31
0.0
  0
LINE
  5
121
330
1D
100
AcDbEntity
  8
0
  6
Continuous
 62
     3
380
     2
100
AcDbLine
 10
143.58
 20
215.7
 30
0.0
 11
143.06236191
 21
217.631851653
 31
0.0
  0
LINE
  5
122
330
1D
100
AcDbEntity
  8
0
  6
Continuous
 62
     3
380
     2
100
AcDbLine
 10
131.58
 20
215.7
 30
0.0
 11
144.58
 21
215.7
 31
0.0
  0
TEXT
  5
123
330
1D
100
AcDbEntity
  8
0
  6
Continuous
 62
     3
380
     2
100
AcDbText
 10
142.58
 20
218.7
 30
0.3
 40
2.5
  1
２．３
 50
90.0
 41
0.8
  7
KANJI0
100
AcDbText
  0
LINE
  5
124
330
1D
100
AcDbEntity
  8
0
  6
LTYPE1
 62
     3
380
     2
100
AcDbLine
 10
145.03
 20
213.299999962
 30
0.0
 11
80.98
 21
213.299999976
 31
0.0
  0
LINE
  5
125
330
1D
100
AcDbEntity
  8
0
  6
Continuous
 62
     3
380
     2
100
AcDbLine
 10
83.23
 20
213.3
 30
0.0
 11
82.71236190999999
 21
211.368148347
 31
0.0
  0
LINE
  5
126
330
1D
100
AcDbEntity
  8
0
  6
Continuous
 62
     3
380
     2
100
AcDbLine
 10
83.23
 20
213.3
 30
0.0
 11
83.74763808999999
 21
211.368148347
 31
0.0
  0
LINE
  5
127
330
1D
100
AcDbEntity
  8
0
  6
Continuous
 62
     3
380
     2
100
AcDbLine
 10
83.23
 20
210.3
 30
0.0
 11
83.23
 21
213.3
 31
0.0
  0
LINE
  5
128
330
1D
100
AcDbEntity
  8
0
  6
Continuous
 62
     3
380
     2
100
AcDbLine
 10
83.23
 20
213.3
 30
0.0
 11
83.23
 21
214.1
 31
0.0
  0
LINE
  5
129
330
1D
100
AcDbEntity
  8
0
  6
Continuous
 62
     3
380
     2
100
AcDbLine
 10
83.23
 20
214.1
 30
0.0
 11
83.23
 21
223.7
 31
0.0
  0
LINE
  5
12A
330
1D
100
AcDbEntity
  8
0
  6
Continuous
 62
     3
380
     2
100
AcDbLine
 10
83.23
 20
214.1
 30
0.0
 11
83.74763808999999
 21
216.031851653
 31
0.0
  0
LINE
  5
12B
330
1D
100
AcDbEntity
  8
0
  6
Continuous
 62
     3
380
     2
100
AcDbLine
 10
83.23
 20
214.1
 30
0.0
 11
82.71236190999999
 21
216.031851653
 31
0.0
  0
LINE
  5
12C
330
1D
100
AcDbEntity
  8
0
  6
Continuous
 62
     3
380
     2
100
AcDbLine
 10
96.73000000000001
 20
214.1
 30
0.0
 11
82.23
 21
214.1
 31
0.0
  0
TEXT
  5
12D
330
1D
100
AcDbEntity
  8
0
  6
Continuous
 62
     3
380
     2
100
AcDbText
 10
82.23
 20
217.1
 30
0.3
 40
2.5
  1
０．８
 50
90.0
 41
0.8
  7
KANJI0
100
AcDbText
  0
LINE
  5
12E
330
1D
100
AcDbEntity
  8
0
  6
Continuous
 62
     3
380
     2
100
AcDbLine
 10
113.23
 20
229.75
 30
0.0
 11
115.161851653
 21
229.23236191
 31
0.0
  0
LINE
  5
12F
330
1D
100
AcDbEntity
  8
0
  6
Continuous
 62
     3
380
     2
100
AcDbLine
 10
113.23
 20
229.75
 30
0.0
 11
115.161851653
 21
230.26763809
 31
0.0
  0
LINE
  5
130
330
1D
100
AcDbEntity
  8
0
  6
Continuous
 62
     3
380
     2
100
AcDbLine
 10
122.83
 20
229.75
 30
0.0
 11
113.23
 21
229.75
 31
0.0
  0
LINE
  5
131
330
1D
100
AcDbEntity
  8
0
  6
Continuous
 62
     3
380
     2
100
AcDbLine
 10
113.23
 20
229.75
 30
0.0
 11
110.73
 21
229.75
 31
0.0
  0
LINE
  5
132
330
1D
100
AcDbEntity
  8
0
  6
Continuous
 62
     3
380
     2
100
AcDbLine
 10
110.73
 20
229.75
 30
0.0
 11
107.73
 21
229.75
 31
0.0
  0
LINE
  5
133
330
1D
100
AcDbEntity
  8
0
  6
Continuous
 62
     3
380
     2
100
AcDbLine
 10
110.73
 20
229.75
 30
0.0
 11
108.798148347
 21
230.26763809
 31
0.0
  0
LINE
  5
134
330
1D
100
AcDbEntity
  8
0
  6
Continuous
 62
     3
380
     2
100
AcDbLine
 10
110.73
 20
229.75
 30
0.0
 11
108.798148347
 21
229.23236191
 31
0.0
  0
LINE
  5
135
330
1D
100
AcDbEntity
  8
0
  6
Continuous
 62
     3
380
     2
100
AcDbLine
 10
110.73
 20
216.75
 30
0.0
 11
110.73
 21
230.75
 31
0.0
  0
TEXT
  5
136
330
1D
100
AcDbEntity
  8
0
  6
Continuous
 62
     3
380
     2
100
AcDbText
 10
116.23
 20
230.75
 30
0.3
 40
2.5
  1
２．５
 41
0.8
  7
KANJI0
100
AcDbText
  0
LINE
  5
137
330
1D
100
AcDbEntity
  8
0
  6
Continuous
 62
     3
380
     2
100
AcDbLine
 10
110.73
 20
230.75
 30
0.0
 11
110.73
 21
235.4
 31
0.0
  0
LINE
  5
138
330
1D
100
AcDbEntity
  8
0
  6
Continuous
 62
     3
380
     2
100
AcDbLine
 10
110.73
 20
234.4
 30
0.0
 11
112.661851653
 21
233.88236191
 31
0.0
  0
LINE
  5
139
330
1D
100
AcDbEntity
  8
0
  6
Continuous
 62
     3
380
     2
100
AcDbLine
 10
110.73
 20
234.4
 30
0.0
 11
112.661851653
 21
234.91763809
 31
0.0
  0
LINE
  5
13A
330
1D
100
AcDbEntity
  8
0
  6
Continuous
 62
     3
380
     2
100
AcDbLine
 10
110.73
 20
234.4
 30
0.0
 11
130.73
 21
234.4
 31
0.0
  0
LINE
  5
13B
330
1D
100
AcDbEntity
  8
0
  6
Continuous
 62
     3
380
     2
100
AcDbLine
 10
130.73
 20
234.4
 30
0.0
 11
128.798148347
 21
234.91763809
 31
0.0
  0
LINE
  5
13C
330
1D
100
AcDbEntity
  8
0
  6
Continuous
 62
     3
380
     2
100
AcDbLine
 10
130.73
 20
234.4
 30
0.0
 11
128.798148347
 21
233.88236191
 31
0.0
  0
LINE
  5
13D
330
1D
100
AcDbEntity
  8
0
  6
Continuous
 62
     3
380
     2
100
AcDbLine
 10
130.73
 20
216.7
 30
0.0
 11
130.73
 21
235.4
 31
0.0
  0
TEXT
  5
13E
330
1D
100
AcDbEntity
  8
0
  6
Continuous
 62
     3
380
     2
100
AcDbText
 10
113.78
 20
235.4
 30
0.3
 40
2.5
  1
５\U+00D7４＝２０
 41
0.8
  7
KANJI0
100
AcDbText
  0
LINE
  5
13F
330
1D
100
AcDbEntity
  8
0
  6
LTYPE1
 62
     3
380
     2
100
AcDbLine
 10
113.227118653
 20
199.527118619
 30
0.0
 11
113.22711866
 21
241.9
 31
0.0
  0
LINE
  5
140
330
1D
100
AcDbEntity
  8
0
  6
Continuous
 62
     3
380
     2
100
AcDbLine
 10
97.23
 20
214.95
 30
0.0
 11
97.23
 21
240.0
 31
0.0
  0
LINE
  5
141
330
1D
100
AcDbEntity
  8
0
  6
Continuous
 62
     3
380
     2
100
AcDbLine
 10
97.23
 20
239.0
 30
0.0
 11
99.16185165299999
 21
238.48236191
 31
0.0
  0
LINE
  5
142
330
1D
100
AcDbEntity
  8
0
  6
Continuous
 62
     3
380
     2
100
AcDbLine
 10
97.23
 20
239.0
 30
0.0
 11
99.16185165299999
 21
239.51763809
 31
0.0
  0
LINE
  5
143
330
1D
100
AcDbEntity
  8
0
  6
Continuous
 62
     3
380
     2
100
AcDbLine
 10
97.23
 20
239.0
 30
0.0
 11
113.23
 21
239.0
 31
0.0
  0
LINE
  5
144
330
1D
100
AcDbEntity
  8
0
  6
Continuous
 62
     3
380
     2
100
AcDbLine
 10
113.23
 20
239.0
 30
0.0
 11
111.298148347
 21
239.51763809
 31
0.0
  0
LINE
  5
145
330
1D
100
AcDbEntity
  8
0
  6
Continuous
 62
     3
380
     2
100
AcDbLine
 10
113.23
 20
239.0
 30
0.0
 11
111.298148347
 21
238.48236191
 31
0.0
  0
LINE
  5
146
330
1D
100
AcDbEntity
  8
0
  6
Continuous
 62
     3
380
     2
100
AcDbLine
 10
113.23
 20
238.0
 30
0.0
 11
113.23
 21
238.0
 31
0.0
  0
TEXT
  5
147
330
1D
100
AcDbEntity
  8
0
  6
Continuous
 62
     3
380
     2
100
AcDbText
 10
103.08
 20
240.0
 30
0.3
 40
2.5
  1
１６
 41
0.8
  7
KANJI0
100
AcDbText
  0
LINE
  5
148
330
1D
100
AcDbEntity
  8
0
  6
Continuous
 62
     3
380
     2
100
AcDbLine
 10
88.73000000000001
 20
125.3
 30
0.0
 11
83.52999999999999
 21
125.3
 31
0.0
  0
LINE
  5
149
330
1D
100
AcDbEntity
  8
0
  6
Continuous
 62
     3
380
     2
100
AcDbLine
 10
84.53000000000001
 20
125.3
 30
0.0
 11
85.04763809000001
 21
127.231851653
 31
0.0
  0
LINE
  5
14A
330
1D
100
AcDbEntity
  8
0
  6
Continuous
 62
     3
380
     2
100
AcDbLine
 10
84.53000000000001
 20
125.3
 30
0.0
 11
84.01236191
 21
127.231851653
 31
0.0
  0
LINE
  5
14B
330
1D
100
AcDbEntity
  8
0
  6
Continuous
 62
     3
380
     2
100
AcDbLine
 10
84.53000000000001
 20
125.3
 30
0.0
 11
84.53000000000001
 21
164.52
 31
0.0
  0
LINE
  5
14C
330
1D
100
AcDbEntity
  8
0
  6
Continuous
 62
     3
380
     2
100
AcDbLine
 10
84.53000000000001
 20
164.52
 30
0.0
 11
84.01236191
 21
162.588148347
 31
0.0
  0
LINE
  5
14D
330
1D
100
AcDbEntity
  8
0
  6
Continuous
 62
     3
380
     2
100
AcDbLine
 10
84.53000000000001
 20
164.52
 30
0.0
 11
85.04763809000001
 21
162.588148347
 31
0.0
  0
LINE
  5
14E
330
1D
100
AcDbEntity
  8
0
  6
Continuous
 62
     3
380
     2
100
AcDbLine
 10
90.53
 20
164.52
 30
0.0
 11
83.52999999999999
 21
164.52
 31
0.0
  0
TEXT
  5
14F
330
1D
100
AcDbEntity
  8
0
  6
Continuous
 62
     3
380
     2
100
AcDbText
 10
83.52999999999999
 20
140.46
 30
0.3
 40
2.5
  1
３９．２
 50
90.0
 41
0.8
  7
KANJI0
100
AcDbText
  0
LINE
  5
150
330
1D
100
AcDbEntity
  8
0
  6
Continuous
 62
     3
380
     2
100
AcDbLine
 10
84.53000000000001
 20
125.3
 30
0.0
 11
85.04763809000001
 21
127.231851653
 31
0.0
  0
LINE
  5
151
330
1D
100
AcDbEntity
  8
0
  6
Continuous
 62
     3
380
     2
100
AcDbLine
 10
84.53000000000001
 20
125.3
 30
0.0
 11
84.01236191
 21
127.231851653
 31
0.0
  0
LINE
  5
152
330
1D
100
AcDbEntity
  8
0
  6
Continuous
 62
     3
380
     2
100
AcDbLine
 10
84.53000000000001
 20
128.3
 30
0.0
 11
84.53000000000001
 21
125.3
 31
0.0
  0
LINE
  5
153
330
1D
100
AcDbEntity
  8
0
  6
Continuous
 62
     3
380
     2
100
AcDbLine
 10
84.53000000000001
 20
125.3
 30
0.0
 11
84.53000000000001
 21
124.85
 31
0.0
  0
LINE
  5
154
330
1D
100
AcDbEntity
  8
0
  6
Continuous
 62
     3
380
     2
100
AcDbLine
 10
84.53000000000001
 20
124.85
 30
0.0
 11
84.53000000000001
 21
115.25
 31
0.0
  0
LINE
  5
155
330
1D
100
AcDbEntity
  8
0
  6
Continuous
 62
     3
380
     2
100
AcDbLine
 10
84.53000000000001
 20
124.85
 30
0.0
 11
84.01236191
 21
122.918148347
 31
0.0
  0
LINE
  5
156
330
1D
100
AcDbEntity
  8
0
  6
Continuous
 62
     3
380
     2
100
AcDbLine
 10
84.53000000000001
 20
124.85
 30
0.0
 11
85.04763809000001
 21
122.918148347
 31
0.0
  0
LINE
  5
157
330
1D
100
AcDbEntity
  8
0
  6
Continuous
 62
     3
380
     2
100
AcDbLine
 10
88.98000000000001
 20
124.85
 30
0.0
 11
83.52999999999999
 21
124.85
 31
0.0
  0
TEXT
  5
158
330
1D
100
AcDbEntity
  8
0
  6
Continuous
 62
     3
380
     2
100
AcDbText
 10
83.52999999999999
 20
115.25
 30
0.3
 40
2.5
  1
０．５
 50
90.0
 41
0.8
  7
KANJI0
100
AcDbText
  0
LINE
  5
159
330
1D
100
AcDbEntity
  8
0
  6
Continuous
 62
     3
380
     2
100
AcDbLine
 10
161.13
 20
172.75
 30
0.0
 11
163.061851653
 21
172.23236191
 31
0.0
  0
LINE
  5
15A
330
1D
100
AcDbEntity
  8
0
  6
Continuous
 62
     3
380
     2
100
AcDbLine
 10
161.13
 20
172.75
 30
0.0
 11
163.061851653
 21
173.26763809
 31
0.0
  0
LINE
  5
15B
330
1D
100
AcDbEntity
  8
0
  6
Continuous
 62
     3
380
     2
100
AcDbLine
 10
161.13
 20
172.75
 30
0.0
 11
182.28
 21
172.75
 31
0.0
  0
LINE
  5
15C
330
1D
100
AcDbEntity
  8
0
  6
Continuous
 62
     3
380
     2
100
AcDbLine
 10
182.28
 20
172.75
 30
0.0
 11
180.348148347
 21
173.26763809
 31
0.0
  0
LINE
  5
15D
330
1D
100
AcDbEntity
  8
0
  6
Continuous
 62
     3
380
     2
100
AcDbLine
 10
182.28
 20
172.75
 30
0.0
 11
180.348148347
 21
172.23236191
 31
0.0
  0
TEXT
  5
15E
330
1D
100
AcDbEntity
  8
0
  6
Continuous
 62
     3
380
     2
100
AcDbText
 10
167.255
 20
173.75
 30
0.3
 40
2.5
  1
２１．２
 41
0.8
  7
KANJI0
100
AcDbText
  0
LINE
  5
15F
330
1D
100
AcDbEntity
  8
0
  6
Continuous
 62
     3
380
     2
100
AcDbLine
 10
161.13
 20
158.05
 30
0.0
 11
161.13
 21
173.75
 31
0.0
  0
LINE
  5
160
330
1D
100
AcDbEntity
  8
0
  6
Continuous
 62
     3
380
     2
100
AcDbLine
 10
182.28
 20
165.45
 30
0.0
 11
182.28
 21
173.75
 31
0.0
  0
LINE
  5
161
330
1D
100
AcDbEntity
  8
0
  6
LTYPE1
 62
     3
380
     2
100
AcDbLine
 10
171.7728813979999
 20
150.9135593
 30
0.0
 11
171.772881403
 21
169.9
 31
0.0
  0
LINE
  5
162
330
1D
100
AcDbEntity
  8
0
  6
Continuous
 62
     3
380
     2
100
AcDbLine
 10
171.78
 20
167.4
 30
0.0
 11
173.711851653
 21
166.88236191
 31
0.0
  0
LINE
  5
163
330
1D
100
AcDbEntity
  8
0
  6
Continuous
 62
     3
380
     2
100
AcDbLine
 10
171.78
 20
167.4
 30
0.0
 11
173.711851653
 21
167.91763809
 31
0.0
  0
LINE
  5
164
330
1D
100
AcDbEntity
  8
0
  6
Continuous
 62
     3
380
     2
100
AcDbLine
 10
181.38
 20
167.4
 30
0.0
 11
171.78
 21
167.4
 31
0.0
  0
LINE
  5
165
330
1D
100
AcDbEntity
  8
0
  6
Continuous
 62
     3
380
     2
100
AcDbLine
 10
171.78
 20
167.4
 30
0.0
 11
165.48
 21
167.4
 31
0.0
  0
LINE
  5
166
330
1D
100
AcDbEntity
  8
0
  6
Continuous
 62
     3
380
     2
100
AcDbLine
 10
165.48
 20
167.4
 30
0.0
 11
162.48
 21
167.4
 31
0.0
  0
LINE
  5
167
330
1D
100
AcDbEntity
  8
0
  6
Continuous
 62
     3
380
     2
100
AcDbLine
 10
165.48
 20
167.4
 30
0.0
 11
163.548148347
 21
167.91763809
 31
0.0
  0
LINE
  5
168
330
1D
100
AcDbEntity
  8
0
  6
Continuous
 62
     3
380
     2
100
AcDbLine
 10
165.48
 20
167.4
 30
0.0
 11
163.548148347
 21
166.88236191
 31
0.0
  0
LINE
  5
169
330
1D
100
AcDbEntity
  8
0
  6
Continuous
 62
     3
380
     2
100
AcDbLine
 10
165.48
 20
165.4
 30
0.0
 11
165.48
 21
168.4
 31
0.0
  0
TEXT
  5
16A
330
1D
100
AcDbEntity
  8
0
  6
Continuous
 62
     3
380
     2
100
AcDbText
 10
174.78
 20
168.4
 30
0.3
 40
2.5
  1
６．３
 41
0.8
  7
KANJI0
100
AcDbText
  0
LINE
  5
16B
330
1D
100
AcDbEntity
  8
0
  6
Continuous
 62
     3
380
     2
100
AcDbLine
 10
164.63
 20
164.52
 30
0.0
 11
154.93
 21
164.52
 31
0.0
  0
LINE
  5
16C
330
1D
100
AcDbEntity
  8
0
  6
Continuous
 62
     3
380
     2
100
AcDbLine
 10
155.93
 20
164.52
 30
0.0
 11
156.44763809
 21
166.451851653
 31
0.0
  0
LINE
  5
16D
330
1D
100
AcDbEntity
  8
0
  6
Continuous
 62
     3
380
     2
100
AcDbLine
 10
155.93
 20
164.52
 30
0.0
 11
155.41236191
 21
166.451851653
 31
0.0
  0
LINE
  5
16E
330
1D
100
AcDbEntity
  8
0
  6
Continuous
 62
     3
380
     2
100
AcDbLine
 10
155.93
 20
167.52
 30
0.0
 11
155.93
 21
164.52
 31
0.0
  0
LINE
  5
16F
330
1D
100
AcDbEntity
  8
0
  6
Continuous
 62
     3
380
     2
100
AcDbLine
 10
155.93
 20
164.52
 30
0.0
 11
155.93
 21
156.82
 31
0.0
  0
LINE
  5
170
330
1D
100
AcDbEntity
  8
0
  6
Continuous
 62
     3
380
     2
100
AcDbLine
 10
155.93
 20
156.82
 30
0.0
 11
155.41236191
 21
154.888148347
 31
0.0
  0
LINE
  5
171
330
1D
100
AcDbEntity
  8
0
  6
Continuous
 62
     3
380
     2
100
AcDbLine
 10
155.93
 20
156.82
 30
0.0
 11
156.44763809
 21
154.888148347
 31
0.0
  0
LINE
  5
172
330
1D
100
AcDbEntity
  8
0
  6
Continuous
 62
     3
380
     2
100
AcDbLine
 10
160.13
 20
156.82
 30
0.0
 11
154.93
 21
156.82
 31
0.0
  0
TEXT
  5
173
330
1D
100
AcDbEntity
  8
0
  6
Continuous
 62
     3
380
     2
100
AcDbText
 10
154.93
 20
157.22
 30
0.3
 40
2.5
  1
７．７
 50
90.0
 41
0.8
  7
KANJI0
100
AcDbText
  0
LINE
  5
174
330
1D
100
AcDbEntity
  8
0
  6
Continuous
 62
     3
380
     2
100
AcDbLine
 10
155.93
 20
156.82
 30
0.0
 11
155.93
 21
154.02
 31
0.0
  0
LINE
  5
175
330
1D
100
AcDbEntity
  8
0
  6
Continuous
 62
     3
380
     2
100
AcDbLine
 10
155.93
 20
156.82
 30
0.0
 11
155.41236191
 21
154.888148347
 31
0.0
  0
LINE
  5
176
330
1D
100
AcDbEntity
  8
0
  6
Continuous
 62
     3
380
     2
100
AcDbLine
 10
155.93
 20
156.82
 30
0.0
 11
156.44763809
 21
154.888148347
 31
0.0
  0
LINE
  5
177
330
1D
100
AcDbEntity
  8
0
  6
Continuous
 62
     3
380
     2
100
AcDbLine
 10
155.93
 20
156.82
 30
0.0
 11
155.93
 21
129.82
 31
0.0
  0
LINE
  5
178
330
1D
100
AcDbEntity
  8
0
  6
Continuous
 62
     3
380
     2
100
AcDbLine
 10
155.93
 20
129.82
 30
0.0
 11
156.44763809
 21
131.751851653
 31
0.0
  0
LINE
  5
179
330
1D
100
AcDbEntity
  8
0
  6
Continuous
 62
     3
380
     2
100
AcDbLine
 10
155.93
 20
129.82
 30
0.0
 11
155.41236191
 21
131.751851653
 31
0.0
  0
LINE
  5
17A
330
1D
100
AcDbEntity
  8
0
  6
Continuous
 62
     3
380
     2
100
AcDbLine
 10
158.83
 20
129.82
 30
0.0
 11
154.93
 21
129.82
 31
0.0
  0
TEXT
  5
17B
330
1D
100
AcDbEntity
  8
0
  6
Continuous
 62
     3
380
     2
100
AcDbText
 10
154.93
 20
141.17
 30
0.3
 40
2.5
  1
２７
 50
90.0
 41
0.8
  7
KANJI0
100
AcDbText
  0
LINE
  5
17C
330
1D
100
AcDbEntity
  8
0
  6
Continuous
 62
     3
380
     2
100
AcDbLine
 10
132.23
 20
158.02
 30
0.0
 11
132.887275803
 21
156.131088006
 31
0.0
  0
LINE
  5
17D
330
1D
100
AcDbEntity
  8
0
  6
Continuous
 62
     3
380
     2
100
AcDbLine
 10
132.23
 20
158.02
 30
0.0
 11
133.743673539
 21
156.712792129
 31
0.0
  0
LINE
  5
17E
330
1D
100
AcDbEntity
  8
0
  6
Continuous
 62
     3
380
     2
100
AcDbLine
 10
132.23
 20
158.02
 30
0.0
 11
139.43
 21
147.42
 31
0.0
  0
LINE
  5
17F
330
1D
100
AcDbEntity
  8
0
  6
Continuous
 62
     3
380
     2
100
AcDbLine
 10
139.43
 20
147.42
 30
0.0
 11
148.33
 21
147.42
 31
0.0
  0
TEXT
  5
180
330
1D
100
AcDbEntity
  8
0
  6
Continuous
 62
     3
380
     2
100
AcDbText
 10
139.43
 20
148.42
 30
0.3
 40
2.5
  1
５－\U+03A6４
 41
0.8
  7
KANJI0
100
AcDbText
  0
LINE
  5
181
330
1D
100
AcDbEntity
  8
0
  6
Continuous
 62
     3
380
     2
100
AcDbLine
 10
95.53
 20
215.42
 30
0.0
 11
94.71250947500001
 21
217.245297028
 31
0.0
  0
LINE
  5
182
330
1D
100
AcDbEntity
  8
0
  6
Continuous
 62
     3
380
     2
100
AcDbLine
 10
95.53
 20
215.42
 30
0.0
 11
93.909383924
 21
216.592008334
 31
0.0
  0
LINE
  5
183
330
1D
100
AcDbEntity
  8
0
  6
Continuous
 62
     3
380
     2
100
AcDbLine
 10
95.53
 20
215.42
 30
0.0
 11
84.62999999999999
 21
228.82
 31
0.0
  0
LINE
  5
184
330
1D
100
AcDbEntity
  8
0
  6
Continuous
 62
     3
380
     2
100
AcDbLine
 10
84.62999999999999
 20
228.82
 30
0.0
 11
75.73
 21
228.82
 31
0.0
  0
TEXT
  5
185
330
1D
100
AcDbEntity
  8
0
  6
Continuous
 62
     3
380
     2
100
AcDbText
 10
75.73
 20
229.82
 30
0.3
 40
2.5
  1
\U+03A6４．５
 41
0.8
  7
KANJI0
100
AcDbText
  0
LINE
  5
186
330
1D
100
AcDbEntity
  8
0
  6
Continuous
 62
     3
380
     2
100
AcDbLine
 10
126.63
 20
217.42
 30
0.0
 11
128.20916873
 21
218.647284043
 31
0.0
  0
LINE
  5
187
330
1D
100
AcDbEntity
  8
0
  6
Continuous
 62
     3
380
     2
100
AcDbLine
 10
126.63
 20
217.42
 30
0.0
 11
127.383958215
 21
219.272443524
 31
0.0
  0
LINE
  5
188
330
1D
100
AcDbEntity
  8
0
  6
Continuous
 62
     3
380
     2
100
AcDbLine
 10
126.63
 20
217.42
 30
0.0
 11
136.63
 21
230.62
 31
0.0
  0
LINE
  5
189
330
1D
100
AcDbEntity
  8
0
  6
Continuous
 62
     3
380
     2
100
AcDbLine
 10
136.63
 20
230.62
 30
0.0
 11
145.53
 21
230.62
 31
0.0
  0
TEXT
  5
18A
330
1D
100
AcDbEntity
  8
0
  6
Continuous
 62
     3
380
     2
100
AcDbText
 10
136.63
 20
231.62
 30
0.3
 40
2.5
  1
５－\U+03A6４
 41
0.8
  7
KANJI0
100
AcDbText
  0
LINE
  5
18B
330
1D
100
AcDbEntity
  8
0
  6
Continuous
 62
     3
380
     2
100
AcDbLine
 10
229.352118646
 20
129.827118602
 30
0.0
 11
221.352118646
 21
129.827118604
 31
0.0
  0
LINE
  5
18C
330
1D
100
AcDbEntity
  8
0
  6
LTYPE1
 62
     3
380
     2
100
AcDbLine
 10
225.372881357
 20
167.527118607
 30
0.0
 11
225.37288137
 21
120.0
 31
0.0
  0
TEXT
  5
18D
330
1D
100
AcDbEntity
  8
1
  6
Continuous
 62
     3
380
     2
100
AcDbText
 10
267.4021
 20
244.2894
 30
0.0
 40
4.511999999999999
  1
■ＰＡＮＥＬ　ＣＵＴ
 41
0.875
  7
KANJI1
100
AcDbText
  0
LINE
  5
18E
330
1D
100
AcDbEntity
  8
0
  6
LTYPE1
 62
     3
380
     2
100
AcDbLine
 10
266.13
 20
181.87
 30
0.0
 11
394.63
 21
181.87
 31
0.0
  0
LINE
  5
18F
330
1D
100
AcDbEntity
  8
0
  6
LTYPE1
 62
     3
380
     2
100
AcDbLine
 10
368.13
 20
160.87
 30
0.0
 11
368.13
 21
234.87
 31
0.0
  0
LINE
  5
190
330
1D
100
AcDbEntity
  8
0
  6
LTYPE1
 62
     3
380
     2
100
AcDbLine
 10
303.13
 20
231.37
 30
0.0
 11
303.13
 21
161.37
 31
0.0
  0
LINE
  5
191
330
1D
100
AcDbEntity
  8
0
  6
Continuous
 62
     1
380
     2
100
AcDbLine
 10
280.63
 20
205.87
 30
0.0
 11
325.63
 21
205.87
 31
0.0
  0
LINE
  5
192
330
1D
100
AcDbEntity
  8
0
  6
Continuous
 62
     1
380
     2
100
AcDbLine
 10
345.63
 20
205.87
 30
0.0
 11
390.63
 21
205.87
 31
0.0
  0
LINE
  5
193
330
1D
100
AcDbEntity
  8
0
  6
Continuous
 62
     1
380
     2
100
AcDbLine
 10
345.63
 20
227.87
 30
0.0
 11
345.63
 21
205.87
 31
0.0
  0
LINE
  5
194
330
1D
100
AcDbEntity
  8
0
  6
Continuous
 62
     1
380
     2
100
AcDbLine
 10
325.63
 20
170.87
 30
0.0
 11
325.63
 21
192.87
 31
0.0
  0
LINE
  5
195
330
1D
100
AcDbEntity
  8
0
  6
Continuous
 62
     1
380
     2
100
AcDbLine
 10
325.63
 20
192.87
 30
0.0
 11
280.63
 21
192.87
 31
0.0
  0
LINE
  5
196
330
1D
100
AcDbEntity
  8
0
  6
Continuous
 62
     1
380
     2
100
AcDbLine
 10
390.63
 20
192.87
 30
0.0
 11
345.63
 21
192.87
 31
0.0
  0
LINE
  5
197
330
1D
100
AcDbEntity
  8
0
  6
Continuous
 62
     1
380
     2
100
AcDbLine
 10
345.63
 20
192.87
 30
0.0
 11
345.63
 21
170.87
 31
0.0
  0
LINE
  5
198
330
1D
100
AcDbEntity
  8
0
  6
Continuous
 62
     1
380
     2
100
AcDbLine
 10
325.63
 20
205.87
 30
0.0
 11
325.63
 21
227.87
 31
0.0
  0
LINE
  5
199
330
1D
100
AcDbEntity
  8
0
  6
Continuous
 62
     1
380
     2
100
AcDbLine
 10
390.63
 20
205.87
 30
0.0
 11
390.63
 21
227.87
 31
0.0
  0
LINE
  5
19A
330
1D
100
AcDbEntity
  8
0
  6
Continuous
 62
     1
380
     2
100
AcDbLine
 10
390.63
 20
227.87
 30
0.0
 11
345.63
 21
227.87
 31
0.0
  0
LINE
  5
19B
330
1D
100
AcDbEntity
  8
0
  6
Continuous
 62
     1
380
     2
100
AcDbLine
 10
390.63
 20
170.87
 30
0.0
 11
390.63
 21
192.87
 31
0.0
  0
LINE
  5
19C
330
1D
100
AcDbEntity
  8
0
  6
Continuous
 62
     1
380
     2
100
AcDbLine
 10
345.63
 20
170.87
 30
0.0
 11
390.63
 21
170.87
 31
0.0
  0
LINE
  5
19D
330
1D
100
AcDbEntity
  8
0
  6
Continuous
 62
     1
380
     2
100
AcDbLine
 10
280.63
 20
170.87
 30
0.0
 11
325.63
 21
170.87
 31
0.0
  0
LINE
  5
19E
330
1D
100
AcDbEntity
  8
0
  6
Continuous
 62
     1
380
     2
100
AcDbLine
 10
280.63
 20
192.87
 30
0.0
 11
280.63
 21
170.87
 31
0.0
  0
LINE
  5
19F
330
1D
100
AcDbEntity
  8
0
  6
Continuous
 62
     1
380
     2
100
AcDbLine
 10
325.63
 20
227.87
 30
0.0
 11
280.63
 21
227.87
 31
0.0
  0
LINE
  5
1A0
330
1D
100
AcDbEntity
  8
0
  6
Continuous
 62
     1
380
     2
100
AcDbLine
 10
280.63
 20
227.87
 30
0.0
 11
280.63
 21
205.87
 31
0.0
  0
TEXT
  5
1A1
330
1D
100
AcDbEntity
  8
1
  6
Continuous
 62
     3
380
     2
100
AcDbText
 10
269.3021
 20
141.5894
 30
0.0
 40
4.511999999999999
  1
■コネクタ接続図
 41
0.875
  7
KANJI1
100
AcDbText
  0
CIRCLE
  5
1A2
330
1D
100
AcDbEntity
  8
1
  6
Continuous
 62
     3
380
     2
100
AcDbCircle
 10
277.07417
 20
118.8127
 30
0.0
 40
2.714249999999999
  0
CIRCLE
  5
1A3
330
1D
100
AcDbEntity
  8
1
  6
Continuous
 62
     3
380
     2
100
AcDbCircle
 10
284.59511
 20
118.8127
 30
0.0
 40
2.714249999999999
  0
CIRCLE
  5
1A4
330
1D
100
AcDbEntity
  8
1
  6
Continuous
 62
     3
380
     2
100
AcDbCircle
 10
292.11605
 20
118.8127
 30
0.0
 40
2.714249999999999
  0
CIRCLE
  5
1A5
330
1D
100
AcDbEntity
  8
1
  6
Continuous
 62
     3
380
     2
100
AcDbCircle
 10
299.63699
 20
118.8127
 30
0.0
 40
2.714249999999999
  0
CIRCLE
  5
1A6
330
1D
100
AcDbEntity
  8
1
  6
Continuous
 62
     3
380
     2
100
AcDbCircle
 10
307.15793
 20
118.8127
 30
0.0
 40
2.714249999999999
  0
TEXT
  5
1A7
330
1D
100
AcDbEntity
  8
1
  6
Continuous
 62
     3
380
     2
100
AcDbText
 10
274.94225
 20
116.74
 30
0.0
 40
4.934999999999999
  1
１
 41
0.8599999999999999
  7
KANJI2
100
AcDbText
  0
TEXT
  5
1A8
330
1D
100
AcDbEntity
  8
1
  6
Continuous
 62
     3
380
     2
100
AcDbText
 10
282.44345
 20
116.4439
 30
0.0
 40
4.934999999999999
  1
２
 41
0.8599999999999999
  7
KANJI2
100
AcDbText
  0
TEXT
  5
1A9
330
1D
100
AcDbEntity
  8
1
  6
Continuous
 62
     3
380
     2
100
AcDbText
 10
289.94465
 20
116.4439
 30
0.0
 40
4.934999999999999
  1
３
 41
0.8599999999999999
  7
KANJI2
100
AcDbText
  0
TEXT
  5
1AA
330
1D
100
AcDbEntity
  8
1
  6
Continuous
 62
     3
380
     2
100
AcDbText
 10
297.44585
 20
116.4439
 30
0.0
 40
4.934999999999999
  1
４
 41
0.8599999999999999
  7
KANJI2
100
AcDbText
  0
TEXT
  5
1AB
330
1D
100
AcDbEntity
  8
1
  6
Continuous
 62
     3
380
     2
100
AcDbText
 10
305.04575
 20
116.4439
 30
0.0
 40
4.934999999999999
  1
５
 41
0.8599999999999999
  7
KANJI2
100
AcDbText
  0
LINE
  5
1AC
330
1D
100
AcDbEntity
  8
1
  6
Continuous
 62
     1
380
     2
100
AcDbLine
 10
273.215
 20
123.2542
 30
0.0
 11
273.215
 21
113.8777
 31
0.0
  0
LINE
  5
1AD
330
1D
100
AcDbEntity
  8
0
  6
Continuous
 62
     1
380
     2
100
AcDbLine
 10
310.63
 20
123.27
 30
0.0
 11
310.63
 21
113.87
 31
0.0
  0
LINE
  5
1AE
330
1D
100
AcDbEntity
  8
1
  6
Continuous
 62
     1
380
     2
100
AcDbLine
 10
273.215
 20
113.8777
 30
0.0
 11
310.63
 21
113.8777
 31
0.0
  0
LINE
  5
1AF
330
1D
100
AcDbEntity
  8
1
  6
Continuous
 62
     1
380
     2
100
AcDbLine
 10
310.63
 20
123.2542
 30
0.0
 11
273.215
 21
123.2542
 31
0.0
  0
LINE
  5
1B0
330
1D
100
AcDbEntity
  8
1
  6
Continuous
 62
     3
380
     2
100
AcDbLine
 10
299.8751
 20
128.1892
 30
0.0
 11
299.8751
 21
129.6697
 31
0.0
  0
LINE
  5
1B1
330
1D
100
AcDbEntity
  8
1
  6
Continuous
 62
     3
380
     2
100
AcDbLine
 10
299.8751
 20
129.6697
 30
0.0
 11
307.2776
 21
129.6697
 31
0.0
  0
LINE
  5
1B2
330
1D
100
AcDbEntity
  8
1
  6
Continuous
 62
     3
380
     2
100
AcDbLine
 10
307.2776
 20
129.6697
 30
0.0
 11
307.2776
 21
128.1892
 31
0.0
  0
TEXT
  5
1B3
330
1D
100
AcDbEntity
  8
1
  6
Continuous
 62
     3
380
     2
100
AcDbText
 10
298.592
 20
124.4386
 30
0.0
 40
2.961
  1
０Ｖ
 41
0.375
  7
KANJI3
100
AcDbText
  0
TEXT
  5
1B4
330
1D
100
AcDbEntity
  8
1
  6
Continuous
 62
     3
380
     2
100
AcDbText
 10
297.605
 20
130.3606
 30
0.0
 40
2.961
  1
ＤＣ　ＰＯＷＥＲ
 41
0.533333333
  7
KANJI4
100
AcDbText
  0
TEXT
  5
1B5
330
1D
100
AcDbEntity
  8
1
  6
Continuous
 62
     3
380
     2
100
AcDbText
 10
275.563
 20
124.3606
 30
0.0
 40
2.961
  1
ＨＩ
 41
0.533333333
  7
KANJI4
100
AcDbText
  0
TEXT
  5
1B6
330
1D
100
AcDbEntity
  8
1
  6
Continuous
 62
     3
380
     2
100
AcDbText
 10
282.763
 20
124.3606
 30
0.0
 40
2.961
  1
ＬＯ
 41
0.533333333
  7
KANJI4
100
AcDbText
  0
TEXT
  5
1B7
330
1D
100
AcDbEntity
  8
1
  6
Continuous
 62
     3
380
     2
100
AcDbText
 10
288.868
 20
124.4606
 30
0.0
 40
2.961
  1
ＨＯＬＤ
 41
0.533333333
  7
KANJI4
100
AcDbText
  0
LINE
  5
1B8
330
1D
100
AcDbEntity
  8
1
  6
Continuous
 62
     3
380
     2
100
AcDbLine
 10
276.8751
 20
128.1892
 30
0.0
 11
276.8751
 21
129.6697
 31
0.0
  0
LINE
  5
1B9
330
1D
100
AcDbEntity
  8
1
  6
Continuous
 62
     3
380
     2
100
AcDbLine
 10
276.8751
 20
129.6697
 30
0.0
 11
284.2776
 21
129.6697
 31
0.0
  0
LINE
  5
1BA
330
1D
100
AcDbEntity
  8
1
  6
Continuous
 62
     3
380
     2
100
AcDbLine
 10
284.2776
 20
129.6697
 30
0.0
 11
284.2776
 21
128.1892
 31
0.0
  0
TEXT
  5
1BB
330
1D
100
AcDbEntity
  8
1
  6
Continuous
 62
     3
380
     2
100
AcDbText
 10
276.805
 20
130.3606
 30
0.0
 40
2.961
  1
ＩＮＰＵＴ
 41
0.533333333
  7
KANJI4
100
AcDbText
  0
ARC
  5
1BC
330
1D
100
AcDbEntity
  8
0
  6
Continuous
 62
     1
380
     2
100
AcDbCircle
 10
45.720086606
 20
164.027118622
 30
0.0
 40
0.5
100
AcDbArc
 50
90.0
 51
179.188499316
  0
ARC
  5
1BD
330
1D
100
AcDbEntity
  8
0
  6
Continuous
 62
     1
380
     2
100
AcDbCircle
 10
61.552418429
 20
164.027118624
 30
0.0
 40
0.5
100
AcDbArc
 50
2.973731082
 51
90.0
  0
LINE
  5
1BE
330
1D
100
AcDbEntity
  8
0
  6
Continuous
 62
     1
380
     2
100
AcDbLine
 10
61.552418429
 20
164.527118624
 30
0.0
 11
45.720086606
 21
164.527118622
 31
0.0
  0
LINE
  5
1BF
330
1D
100
AcDbEntity
  8
0
  6
Continuous
 62
     1
380
     2
100
AcDbLine
 10
62.051745142
 20
164.053057674
 30
0.0
 11
62.42711859899999
 21
156.827118624
 31
0.0
  0
ARC
  5
1C0
330
1D
100
AcDbEntity
  8
0
  6
Continuous
 62
     1
380
     2
100
AcDbCircle
 10
65.84321576
 20
156.327118624
 30
0.0
 40
0.5
100
AcDbArc
 50
0.8115006859999999
 51
90.0
  0
LINE
  5
1C1
330
1D
100
AcDbEntity
  8
0
  6
Continuous
 62
     1
380
     2
100
AcDbLine
 10
65.84321576
 20
156.827118624
 30
0.0
 11
62.42711859899999
 21
156.827118624
 31
0.0
  0
LINE
  5
1C2
330
1D
100
AcDbEntity
  8
0
  6
Continuous
 62
     1
380
     2
100
AcDbLine
 10
60.72711860800001
 20
130.127118623
 30
0.0
 11
60.727118604
 21
147.327118623
 31
0.0
  0
ARC
  5
1C3
330
1D
100
AcDbEntity
  8
0
  6
Continuous
 62
     1
380
     2
100
AcDbCircle
 10
61.22711860399999
 20
147.327118623
 30
0.0
 40
0.5
100
AcDbArc
 50
0.0
 51
180.0
  0
LINE
  5
1C4
330
1D
100
AcDbEntity
  8
0
  6
Continuous
 62
     1
380
     2
100
AcDbLine
 10
61.72711860399999
 20
147.327118623
 30
0.0
 11
61.727118608
 21
129.827118623
 31
0.0
  0
LINE
  5
1C5
330
1D
100
AcDbEntity
  8
0
  6
Continuous
 62
     1
380
     2
100
AcDbLine
 10
50.72711860800001
 20
130.12711862
 30
0.0
 11
50.727118604
 21
147.32711862
 31
0.0
  0
ARC
  5
1C6
330
1D
100
AcDbEntity
  8
0
  6
Continuous
 62
     1
380
     2
100
AcDbCircle
 10
50.227118604
 20
147.32711862
 30
0.0
 40
0.5
100
AcDbArc
 50
0.0
 51
180.0
  0
LINE
  5
1C7
330
1D
100
AcDbEntity
  8
0
  6
Continuous
 62
     1
380
     2
100
AcDbLine
 10
49.727118604
 20
147.32711862
 30
0.0
 11
49.727118608
 21
129.577118621
 31
0.0
  0
LINE
  5
1C8
330
1D
100
AcDbEntity
  8
0
  6
Continuous
 62
     1
380
     2
100
AcDbLine
 10
44.450111842
 20
125.327118619
 30
0.0
 11
45.22711860899999
 21
125.327118619
 31
0.0
  0
ARC
  5
1C9
330
1D
100
AcDbEntity
  8
0
  6
Continuous
 62
     1
380
     2
100
AcDbCircle
 10
44.450111842
 20
125.827118619
 30
0.0
 40
0.5
100
AcDbArc
 50
183.17983012
 51
269.9999999990001
  0
LINE
  5
1CA
330
1D
100
AcDbEntity
  8
0
  6
Continuous
 62
     1
380
     2
100
AcDbLine
 10
45.22711860899999
 20
126.927118619
 30
0.0
 11
45.22711860899999
 21
127.327118619
 31
0.0
  0
LINE
  5
1CB
330
1D
100
AcDbEntity
  8
0
  6
Continuous
 62
     1
380
     2
100
AcDbLine
 10
45.22711860899999
 20
127.327118619
 30
0.0
 11
46.10211860899999
 21
127.327118619
 31
0.0
  0
LINE
  5
1CC
330
1D
100
AcDbEntity
  8
0
  6
Continuous
 62
     1
380
     2
100
AcDbLine
 10
43.727118608
 20
129.827118618
 30
0.0
 11
44.734063052
 21
129.827118619
 31
0.0
  0
LINE
  5
1CD
330
1D
100
AcDbEntity
  8
0
  6
Continuous
 62
     1
380
     2
100
AcDbLine
 10
45.22711860899999
 20
125.327118619
 30
0.0
 11
45.22711860899999
 21
127.327118619
 31
0.0
  0
LINE
  5
1CE
330
1D
100
AcDbEntity
  8
0
  6
Continuous
 62
     1
380
     2
100
AcDbLine
 10
43.727118608
 20
129.827118618
 30
0.0
 11
43.95088166499999
 21
125.799383609
 31
0.0
  0
LINE
  5
1CF
330
1D
100
AcDbEntity
  8
0
  6
Continuous
 62
     1
380
     2
100
AcDbLine
 10
49.727118608
 20
129.82711862
 30
0.0
 11
44.734063052
 21
129.827118619
 31
0.0
  0
LINE
  5
1D0
330
1D
100
AcDbEntity
  8
0
  6
Continuous
 62
     1
380
     2
100
AcDbLine
 10
45.220136755
 20
164.034200065
 30
0.0
 11
44.735617191
 21
129.827118619
 31
0.0
  0
LINE
  5
1D1
330
1D
100
AcDbEntity
  8
0
  6
Continuous
 62
     1
380
     2
100
AcDbLine
 10
67.727118608
 20
129.827118625
 30
0.0
 11
67.50335555300001
 21
125.799383615
 31
0.0
  0
ARC
  5
1D2
330
1D
100
AcDbEntity
  8
0
  6
Continuous
 62
     1
380
     2
100
AcDbCircle
 10
67.004125376
 20
125.827118625
 30
0.0
 40
0.5
100
AcDbArc
 50
269.9999999990001
 51
356.82016988
  0
LINE
  5
1D3
330
1D
100
AcDbEntity
  8
0
  6
Continuous
 62
     1
380
     2
100
AcDbLine
 10
66.227118609
 20
126.927118624
 30
0.0
 11
66.227118609
 21
127.327118624
 31
0.0
  0
LINE
  5
1D4
330
1D
100
AcDbEntity
  8
0
  6
Continuous
 62
     1
380
     2
100
AcDbLine
 10
66.227118609
 20
125.327118624
 30
0.0
 11
66.227118609
 21
127.327118624
 31
0.0
  0
LINE
  5
1D5
330
1D
100
AcDbEntity
  8
0
  6
Continuous
 62
     1
380
     2
100
AcDbLine
 10
67.727118608
 20
129.827118625
 30
0.0
 11
61.727118608
 21
129.827118623
 31
0.0
  0
LINE
  5
1D6
330
1D
100
AcDbEntity
  8
0
  6
Continuous
 62
     1
380
     2
100
AcDbLine
 10
66.22499999999999
 20
125.327118624
 30
0.0
 11
67.004125376
 21
125.327118625
 31
0.0
  0
LINE
  5
1D7
330
1D
100
AcDbEntity
  8
0
  6
Continuous
 62
     1
380
     2
100
AcDbLine
 10
66.34316561
 20
156.334200067
 30
0.0
 11
66.71862002399999
 21
129.827118623
 31
0.0
  0
LINE
  5
1D8
330
1D
100
AcDbEntity
  8
0
  6
Continuous
 62
     1
380
     2
100
AcDbLine
 10
66.227118609
 20
127.327118624
 30
0.0
 11
45.677118609
 21
127.32711862
 31
0.0
  0
ARC
  5
1D9
330
1D
100
AcDbEntity
  8
0
  6
Continuous
 62
     1
380
     2
100
AcDbCircle
 10
55.449323478
 20
241.109139313
 30
0.0
 40
116.259595471
100
AcDbArc
 50
264.954667232
 51
275.3181692970001
  0
LINE
  5
1DA
330
1D
100
AcDbEntity
  8
0
  6
Continuous
 62
     1
380
     2
100
AcDbLine
 10
61.727118608
 20
129.577118623
 30
0.0
 11
49.727118608
 21
129.577118621
 31
0.0
  0
LINE
  5
1DB
330
1D
100
AcDbEntity
  8
0
  6
Continuous
 62
     1
380
     2
100
AcDbLine
 10
55.72711860800001
 20
130.127118622
 30
0.0
 11
60.72711860800001
 21
130.127118623
 31
0.0
  0
LINE
  5
1DC
330
1D
100
AcDbEntity
  8
0
  6
Continuous
 62
     1
380
     2
100
AcDbLine
 10
60.72711860800001
 20
130.377118623
 30
0.0
 11
55.72711860800001
 21
130.377118622
 31
0.0
  0
LINE
  5
1DD
330
1D
100
AcDbEntity
  8
0
  6
Continuous
 62
     1
380
     2
100
AcDbLine
 10
55.72711860800001
 20
130.877118622
 30
0.0
 11
60.72711860800001
 21
130.877118623
 31
0.0
  0
LINE
  5
1DE
330
1D
100
AcDbEntity
  8
0
  6
Continuous
 62
     1
380
     2
100
AcDbLine
 10
60.72711860800001
 20
131.377118623
 30
0.0
 11
55.72711860800001
 21
131.377118622
 31
0.0
  0
LINE
  5
1DF
330
1D
100
AcDbEntity
  8
0
  6
Continuous
 62
     1
380
     2
100
AcDbLine
 10
55.72711860800001
 20
131.877118622
 30
0.0
 11
60.72711860800001
 21
131.877118623
 31
0.0
  0
LINE
  5
1E0
330
1D
100
AcDbEntity
  8
0
  6
Continuous
 62
     1
380
     2
100
AcDbLine
 10
60.72711860800001
 20
132.377118623
 30
0.0
 11
55.72711860800001
 21
132.377118622
 31
0.0
  0
LINE
  5
1E1
330
1D
100
AcDbEntity
  8
0
  6
Continuous
 62
     1
380
     2
100
AcDbLine
 10
55.727118607
 20
132.877118622
 30
0.0
 11
60.727118607
 21
132.877118623
 31
0.0
  0
LINE
  5
1E2
330
1D
100
AcDbEntity
  8
0
  6
Continuous
 62
     1
380
     2
100
AcDbLine
 10
60.727118607
 20
133.377118623
 30
0.0
 11
55.727118607
 21
133.377118622
 31
0.0
  0
LINE
  5
1E3
330
1D
100
AcDbEntity
  8
0
  6
Continuous
 62
     1
380
     2
100
AcDbLine
 10
55.727118607
 20
133.877118622
 30
0.0
 11
60.727118607
 21
133.877118623
 31
0.0
  0
LINE
  5
1E4
330
1D
100
AcDbEntity
  8
0
  6
Continuous
 62
     1
380
     2
100
AcDbLine
 10
60.727118607
 20
134.377118623
 30
0.0
 11
55.727118607
 21
134.377118622
 31
0.0
  0
LINE
  5
1E5
330
1D
100
AcDbEntity
  8
0
  6
Continuous
 62
     1
380
     2
100
AcDbLine
 10
55.727118607
 20
134.877118622
 30
0.0
 11
60.727118607
 21
134.877118623
 31
0.0
  0
LINE
  5
1E6
330
1D
100
AcDbEntity
  8
0
  6
Continuous
 62
     1
380
     2
100
AcDbLine
 10
55.72711860800001
 20
130.127118622
 30
0.0
 11
50.72711860800001
 21
130.12711862
 31
0.0
  0
LINE
  5
1E7
330
1D
100
AcDbEntity
  8
0
  6
Continuous
 62
     1
380
     2
100
AcDbLine
 10
50.72711860800001
 20
130.37711862
 30
0.0
 11
55.72711860800001
 21
130.377118622
 31
0.0
  0
LINE
  5
1E8
330
1D
100
AcDbEntity
  8
0
  6
Continuous
 62
     1
380
     2
100
AcDbLine
 10
55.72711860800001
 20
130.877118622
 30
0.0
 11
50.72711860800001
 21
130.87711862
 31
0.0
  0
LINE
  5
1E9
330
1D
100
AcDbEntity
  8
0
  6
Continuous
 62
     1
380
     2
100
AcDbLine
 10
50.72711860800001
 20
131.37711862
 30
0.0
 11
55.72711860800001
 21
131.377118622
 31
0.0
  0
LINE
  5
1EA
330
1D
100
AcDbEntity
  8
0
  6
Continuous
 62
     1
380
     2
100
AcDbLine
 10
55.72711860800001
 20
131.877118622
 30
0.0
 11
50.72711860800001
 21
131.87711862
 31
0.0
  0
LINE
  5
1EB
330
1D
100
AcDbEntity
  8
0
  6
Continuous
 62
     1
380
     2
100
AcDbLine
 10
50.72711860800001
 20
132.37711862
 30
0.0
 11
55.72711860800001
 21
132.377118622
 31
0.0
  0
LINE
  5
1EC
330
1D
100
AcDbEntity
  8
0
  6
Continuous
 62
     1
380
     2
100
AcDbLine
 10
55.727118607
 20
132.877118622
 30
0.0
 11
50.727118607
 21
132.87711862
 31
0.0
  0
LINE
  5
1ED
330
1D
100
AcDbEntity
  8
0
  6
Continuous
 62
     1
380
     2
100
AcDbLine
 10
50.727118607
 20
133.37711862
 30
0.0
 11
55.727118607
 21
133.377118622
 31
0.0
  0
LINE
  5
1EE
330
1D
100
AcDbEntity
  8
0
  6
Continuous
 62
     1
380
     2
100
AcDbLine
 10
55.727118607
 20
133.877118622
 30
0.0
 11
50.727118607
 21
133.87711862
 31
0.0
  0
LINE
  5
1EF
330
1D
100
AcDbEntity
  8
0
  6
Continuous
 62
     1
380
     2
100
AcDbLine
 10
50.727118607
 20
134.37711862
 30
0.0
 11
55.727118607
 21
134.377118622
 31
0.0
  0
LINE
  5
1F0
330
1D
100
AcDbEntity
  8
0
  6
Continuous
 62
     1
380
     2
100
AcDbLine
 10
55.727118607
 20
134.877118622
 30
0.0
 11
50.727118607
 21
134.87711862
 31
0.0
  0
LINE
  5
1F1
330
1D
100
AcDbEntity
  8
0
  6
Continuous
 62
     1
380
     2
100
AcDbLine
 10
89.22711863200001
 20
129.827118624
 30
0.0
 11
113.227118632
 21
129.827118617
 31
0.0
  0
LINE
  5
1F2
330
1D
100
AcDbEntity
  8
0
  6
Continuous
 62
     1
380
     2
100
AcDbLine
 10
89.83711863299999
 20
130.127118624
 30
0.0
 11
89.83711863299999
 21
130.377118624
 31
0.0
  0
LINE
  5
1F3
330
1D
100
AcDbEntity
  8
0
  6
Continuous
 62
     1
380
     2
100
AcDbLine
 10
90.02711863299998
 20
130.127118624
 30
0.0
 11
89.83711863299999
 21
130.127118624
 31
0.0
  0
LINE
  5
1F4
330
1D
100
AcDbEntity
  8
0
  6
Continuous
 62
     1
380
     2
100
AcDbLine
 10
89.83711863299999
 20
130.377118624
 30
0.0
 11
89.64711863299999
 21
130.377118624
 31
0.0
  0
LINE
  5
1F5
330
1D
100
AcDbEntity
  8
0
  6
Continuous
 62
     1
380
     2
100
AcDbLine
 10
89.64711863299999
 20
130.377118624
 30
0.0
 11
89.64711863299999
 21
130.877118624
 31
0.0
  0
LINE
  5
1F6
330
1D
100
AcDbEntity
  8
0
  6
Continuous
 62
     1
380
     2
100
AcDbLine
 10
89.64711863299999
 20
130.877118624
 30
0.0
 11
89.45711863299999
 21
130.877118624
 31
0.0
  0
LINE
  5
1F7
330
1D
100
AcDbEntity
  8
0
  6
Continuous
 62
     1
380
     2
100
AcDbLine
 10
88.50711863299999
 20
133.377118624
 30
0.0
 11
88.50711863399999
 21
133.877118624
 31
0.0
  0
LINE
  5
1F8
330
1D
100
AcDbEntity
  8
0
  6
Continuous
 62
     1
380
     2
100
AcDbLine
 10
88.50711863399999
 20
133.877118624
 30
0.0
 11
88.317118634
 21
133.877118624
 31
0.0
  0
LINE
  5
1F9
330
1D
100
AcDbEntity
  8
0
  6
Continuous
 62
     1
380
     2
100
AcDbLine
 10
88.317118634
 20
133.877118624
 30
0.0
 11
88.317118634
 21
134.377118624
 31
0.0
  0
LINE
  5
1FA
330
1D
100
AcDbEntity
  8
0
  6
Continuous
 62
     1
380
     2
100
AcDbLine
 10
88.317118634
 20
134.377118624
 30
0.0
 11
88.127118634
 21
134.377118624
 31
0.0
  0
LINE
  5
1FB
330
1D
100
AcDbEntity
  8
0
  6
Continuous
 62
     1
380
     2
100
AcDbLine
 10
88.127118634
 20
134.377118624
 30
0.0
 11
88.127118634
 21
134.877118624
 31
0.0
  0
LINE
  5
1FC
330
1D
100
AcDbEntity
  8
0
  6
Continuous
 62
     1
380
     2
100
AcDbLine
 10
89.45711863299999
 20
130.877118624
 30
0.0
 11
89.45711863299999
 21
131.377118624
 31
0.0
  0
LINE
  5
1FD
330
1D
100
AcDbEntity
  8
0
  6
Continuous
 62
     1
380
     2
100
AcDbLine
 10
89.45711863299999
 20
131.377118624
 30
0.0
 11
89.26711863299999
 21
131.377118624
 31
0.0
  0
LINE
  5
1FE
330
1D
100
AcDbEntity
  8
0
  6
Continuous
 62
     1
380
     2
100
AcDbLine
 10
89.26711863299999
 20
131.377118624
 30
0.0
 11
89.26711863299999
 21
131.877118624
 31
0.0
  0
LINE
  5
1FF
330
1D
100
AcDbEntity
  8
0
  6
Continuous
 62
     1
380
     2
100
AcDbLine
 10
89.26711863299999
 20
131.877118624
 30
0.0
 11
89.07711863299999
 21
131.877118624
 31
0.0
  0
LINE
  5
200
330
1D
100
AcDbEntity
  8
0
  6
Continuous
 62
     1
380
     2
100
AcDbLine
 10
89.07711863299999
 20
131.877118624
 30
0.0
 11
89.07711863299999
 21
132.377118624
 31
0.0
  0
LINE
  5
201
330
1D
100
AcDbEntity
  8
0
  6
Continuous
 62
     1
380
     2
100
AcDbLine
 10
89.07711863299999
 20
132.377118624
 30
0.0
 11
88.88711863299999
 21
132.377118624
 31
0.0
  0
LINE
  5
202
330
1D
100
AcDbEntity
  8
0
  6
Continuous
 62
     1
380
     2
100
AcDbLine
 10
88.88711863299999
 20
132.377118624
 30
0.0
 11
88.88711863299999
 21
132.877118624
 31
0.0
  0
LINE
  5
203
330
1D
100
AcDbEntity
  8
0
  6
Continuous
 62
     1
380
     2
100
AcDbLine
 10
88.88711863299999
 20
132.877118624
 30
0.0
 11
88.69711863299999
 21
132.877118624
 31
0.0
  0
LINE
  5
204
330
1D
100
AcDbEntity
  8
0
  6
Continuous
 62
     1
380
     2
100
AcDbLine
 10
88.69711863299999
 20
132.877118624
 30
0.0
 11
88.69711863299999
 21
133.377118624
 31
0.0
  0
LINE
  5
205
330
1D
100
AcDbEntity
  8
0
  6
Continuous
 62
     1
380
     2
100
AcDbLine
 10
88.69711863299999
 20
133.377118624
 30
0.0
 11
88.50711863299999
 21
133.377118624
 31
0.0
  0
LINE
  5
206
330
1D
100
AcDbEntity
  8
0
  6
Continuous
 62
     1
380
     2
100
AcDbLine
 10
90.02711863299998
 20
130.127118624
 30
0.0
 11
90.627118634
 21
134.127118623
 31
0.0
  0
LINE
  5
207
330
1D
100
AcDbEntity
  8
0
  6
Continuous
 62
     1
380
     2
100
AcDbLine
 10
90.627118634
 20
134.127118623
 30
0.0
 11
90.42711863399999
 21
134.877118623
 31
0.0
  0
ARC
  5
208
330
1D
100
AcDbEntity
  8
0
  6
Continuous
 62
     1
380
     2
100
AcDbCircle
 10
67.227118636
 20
144.191623716
 30
0.0
 40
25.0
100
AcDbArc
 50
338.125166713
 51
341.192418184
  0
LINE
  5
209
330
1D
100
AcDbEntity
  8
0
  6
Continuous
 62
     1
380
     2
100
AcDbLine
 10
90.827118644
 20
129.82711862
 30
0.0
 11
90.996013913
 21
144.54211884
 31
0.0
  0
ARC
  5
20A
330
1D
100
AcDbEntity
  8
0
  6
Continuous
 62
     1
380
     2
100
AcDbCircle
 10
92.977118639
 20
134.827118608
 30
0.0
 40
0.5
100
AcDbArc
 50
179.999654417
 51
270.00025629
  0
ARC
  5
20B
330
1D
100
AcDbEntity
  8
0
  6
Continuous
 62
     1
380
     2
100
AcDbCircle
 10
66.03422441300001
 20
146.577718181
 30
0.0
 40
25.0
100
AcDbArc
 50
332.093894917
 51
1.423668565
  0
LINE
  5
20C
330
1D
100
AcDbEntity
  8
0
  6
Continuous
 62
     1
380
     2
100
AcDbLine
 10
89.22711863200001
 20
129.827118624
 30
0.0
 11
89.45088168799999
 21
125.799383614
 31
0.0
  0
LINE
  5
20D
330
1D
100
AcDbEntity
  8
0
  6
Continuous
 62
     1
380
     2
100
AcDbLine
 10
89.975
 20
124.85
 30
0.0
 11
89.975
 21
125.35
 31
0.0
  0
ARC
  5
20E
330
1D
100
AcDbEntity
  8
0
  6
Continuous
 62
     1
380
     2
100
AcDbCircle
 10
89.95011186499999
 20
125.827118624
 30
0.0
 40
0.5
100
AcDbArc
 50
183.17983012
 51
269.999999989
  0
LINE
  5
20F
330
1D
100
AcDbEntity
  8
0
  6
Continuous
 62
     1
380
     2
100
AcDbLine
 10
89.95011186499999
 20
125.327118624
 30
0.0
 11
113.227118631
 21
125.327118617
 31
0.0
  0
LINE
  5
210
330
1D
100
AcDbEntity
  8
0
  6
Continuous
 62
     1
380
     2
100
AcDbLine
 10
136.617118633
 20
130.127118611
 30
0.0
 11
136.617118633
 21
130.377118611
 31
0.0
  0
LINE
  5
211
330
1D
100
AcDbEntity
  8
0
  6
Continuous
 62
     1
380
     2
100
AcDbLine
 10
136.427118633
 20
130.127118611
 30
0.0
 11
136.617118633
 21
130.127118611
 31
0.0
  0
LINE
  5
212
330
1D
100
AcDbEntity
  8
0
  6
Continuous
 62
     1
380
     2
100
AcDbLine
 10
136.617118633
 20
130.377118611
 30
0.0
 11
136.807118633
 21
130.377118611
 31
0.0
  0
LINE
  5
213
330
1D
100
AcDbEntity
  8
0
  6
Continuous
 62
     1
380
     2
100
AcDbLine
 10
136.807118633
 20
130.377118611
 30
0.0
 11
136.807118633
 21
130.877118611
 31
0.0
  0
LINE
  5
214
330
1D
100
AcDbEntity
  8
0
  6
Continuous
 62
     1
380
     2
100
AcDbLine
 10
136.807118633
 20
130.877118611
 30
0.0
 11
136.997118633
 21
130.877118611
 31
0.0
  0
LINE
  5
215
330
1D
100
AcDbEntity
  8
0
  6
Continuous
 62
     1
380
     2
100
AcDbLine
 10
136.997118633
 20
130.877118611
 30
0.0
 11
136.997118633
 21
131.377118611
 31
0.0
  0
LINE
  5
216
330
1D
100
AcDbEntity
  8
0
  6
Continuous
 62
     1
380
     2
100
AcDbLine
 10
136.997118633
 20
131.377118611
 30
0.0
 11
137.187118633
 21
131.377118611
 31
0.0
  0
LINE
  5
217
330
1D
100
AcDbEntity
  8
0
  6
Continuous
 62
     1
380
     2
100
AcDbLine
 10
137.187118633
 20
131.377118611
 30
0.0
 11
137.187118633
 21
131.877118611
 31
0.0
  0
LINE
  5
218
330
1D
100
AcDbEntity
  8
0
  6
Continuous
 62
     1
380
     2
100
AcDbLine
 10
137.187118633
 20
131.877118611
 30
0.0
 11
137.3771186329999
 21
131.877118611
 31
0.0
  0
LINE
  5
219
330
1D
100
AcDbEntity
  8
0
  6
Continuous
 62
     1
380
     2
100
AcDbLine
 10
137.3771186329999
 20
131.877118611
 30
0.0
 11
137.3771186329999
 21
132.377118611
 31
0.0
  0
LINE
  5
21A
330
1D
100
AcDbEntity
  8
0
  6
Continuous
 62
     1
380
     2
100
AcDbLine
 10
137.3771186329999
 20
132.377118611
 30
0.0
 11
137.5671186329999
 21
132.377118611
 31
0.0
  0
LINE
  5
21B
330
1D
100
AcDbEntity
  8
0
  6
Continuous
 62
     1
380
     2
100
AcDbLine
 10
137.5671186329999
 20
132.377118611
 30
0.0
 11
137.5671186329999
 21
132.877118611
 31
0.0
  0
LINE
  5
21C
330
1D
100
AcDbEntity
  8
0
  6
Continuous
 62
     1
380
     2
100
AcDbLine
 10
137.5671186329999
 20
132.877118611
 30
0.0
 11
137.757118633
 21
132.877118611
 31
0.0
  0
LINE
  5
21D
330
1D
100
AcDbEntity
  8
0
  6
Continuous
 62
     1
380
     2
100
AcDbLine
 10
137.757118633
 20
132.877118611
 30
0.0
 11
137.757118633
 21
133.377118611
 31
0.0
  0
LINE
  5
21E
330
1D
100
AcDbEntity
  8
0
  6
Continuous
 62
     1
380
     2
100
AcDbLine
 10
137.757118633
 20
133.377118611
 30
0.0
 11
137.947118633
 21
133.377118611
 31
0.0
  0
LINE
  5
21F
330
1D
100
AcDbEntity
  8
0
  6
Continuous
 62
     1
380
     2
100
AcDbLine
 10
137.947118633
 20
133.377118611
 30
0.0
 11
137.947118634
 21
133.877118611
 31
0.0
  0
LINE
  5
220
330
1D
100
AcDbEntity
  8
0
  6
Continuous
 62
     1
380
     2
100
AcDbLine
 10
137.947118634
 20
133.877118611
 30
0.0
 11
138.137118634
 21
133.877118611
 31
0.0
  0
LINE
  5
221
330
1D
100
AcDbEntity
  8
0
  6
Continuous
 62
     1
380
     2
100
AcDbLine
 10
138.137118634
 20
133.877118611
 30
0.0
 11
138.137118634
 21
134.377118611
 31
0.0
  0
LINE
  5
222
330
1D
100
AcDbEntity
  8
0
  6
Continuous
 62
     1
380
     2
100
AcDbLine
 10
138.137118634
 20
134.377118611
 30
0.0
 11
138.327118634
 21
134.377118611
 31
0.0
  0
LINE
  5
223
330
1D
100
AcDbEntity
  8
0
  6
Continuous
 62
     1
380
     2
100
AcDbLine
 10
138.327118634
 20
134.377118611
 30
0.0
 11
138.327118634
 21
134.877118611
 31
0.0
  0
LINE
  5
224
330
1D
100
AcDbEntity
  8
0
  6
Continuous
 62
     1
380
     2
100
AcDbLine
 10
136.427118633
 20
130.127118611
 30
0.0
 11
135.827118634
 21
134.127118612
 31
0.0
  0
LINE
  5
225
330
1D
100
AcDbEntity
  8
0
  6
Continuous
 62
     1
380
     2
100
AcDbLine
 10
135.827118634
 20
134.127118612
 30
0.0
 11
136.027118634
 21
134.877118611
 31
0.0
  0
ARC
  5
226
330
1D
100
AcDbEntity
  8
0
  6
Continuous
 62
     1
380
     2
100
AcDbCircle
 10
159.227118636
 20
144.191623692
 30
0.0
 40
25.0
100
AcDbArc
 50
198.807581816
 51
201.874833287
  0
LINE
  5
227
330
1D
100
AcDbEntity
  8
0
  6
Continuous
 62
     1
380
     2
100
AcDbLine
 10
135.627118633
 20
129.827118615
 30
0.0
 11
135.45466526
 21
144.852118836
 31
0.0
  0
LINE
  5
228
330
1D
100
AcDbEntity
  8
0
  6
Continuous
 62
     1
380
     2
100
AcDbLine
 10
137.227118633
 20
129.827118616
 30
0.0
 11
137.003355576
 21
125.799383602
 31
0.0
  0
ARC
  5
229
330
1D
100
AcDbEntity
  8
0
  6
Continuous
 62
     1
380
     2
100
AcDbCircle
 10
136.5041254
 20
125.827118611
 30
0.0
 40
0.5
100
AcDbArc
 50
269.999999989
 51
356.82016988
  0
ARC
  5
22A
330
1D
100
AcDbEntity
  8
0
  6
Continuous
 62
     1
380
     2
100
AcDbCircle
 10
133.477118639
 20
134.827118607
 30
0.0
 40
0.5
100
AcDbArc
 50
270.000289135
 51
0.000327848
  0
LINE
  5
22B
330
1D
100
AcDbEntity
  8
0
  6
Continuous
 62
     1
380
     2
100
AcDbLine
 10
136.475
 20
125.35
 30
0.0
 11
136.475
 21
124.85
 31
0.0
  0
LINE
  5
22C
330
1D
100
AcDbEntity
  8
0
  6
Continuous
 62
     1
380
     2
100
AcDbLine
 10
92.977120876
 20
134.327118608
 30
0.0
 11
133.477121163
 21
134.327118607
 31
0.0
  0
LINE
  5
22D
330
1D
100
AcDbEntity
  8
0
  6
Continuous
 62
     1
380
     2
100
AcDbLine
 10
137.227118632
 20
129.827118611
 30
0.0
 11
113.227118632
 21
129.827118617
 31
0.0
  0
LINE
  5
22E
330
1D
100
AcDbEntity
  8
0
  6
Continuous
 62
     1
380
     2
100
AcDbLine
 10
136.504125399
 20
125.327118611
 30
0.0
 11
113.227118631
 21
125.327118617
 31
0.0
  0
LINE
  5
22F
330
1D
100
AcDbEntity
  8
0
  6
Continuous
 62
     1
380
     2
100
AcDbLine
 10
136.475
 20
124.85
 30
0.0
 11
89.975
 21
124.85
 31
0.0
  0
ARC
  5
230
330
1D
100
AcDbEntity
  8
0
  6
Continuous
 62
     1
380
     2
100
AcDbCircle
 10
160.420012861
 20
146.577718157
 30
0.0
 40
25.0
100
AcDbArc
 50
178.576331032
 51
207.906105083
  0
LINE
  5
231
330
1D
100
AcDbEntity
  8
0
  6
Continuous
 62
     1
380
     2
100
AcDbLine
 10
133.977118639
 20
134.827121468
 30
0.0
 11
133.97711864
 21
154.327118607
 31
0.0
  0
LINE
  5
232
330
1D
100
AcDbEntity
  8
0
  6
Continuous
 62
     1
380
     2
100
AcDbLine
 10
134.734546248
 20
164.527118601
 30
0.0
 11
113.227118642
 21
164.527118607
 31
0.0
  0
ARC
  5
233
330
1D
100
AcDbEntity
  8
0
  6
Continuous
 62
     1
380
     2
100
AcDbCircle
 10
134.734546248
 20
164.027118601
 30
0.0
 40
0.5
100
AcDbArc
 50
0.6575984349999999
 51
89.99999999100001
  0
ARC
  5
234
330
1D
100
AcDbEntity
  8
0
  6
Continuous
 62
     1
380
     2
100
AcDbCircle
 10
134.817219066
 20
156.327118606
 30
0.0
 40
0.5
100
AcDbArc
 50
0.0
 51
90.0
  0
LINE
  5
235
330
1D
100
AcDbEntity
  8
0
  6
Continuous
 62
     1
380
     2
100
AcDbLine
 10
135.427730073
 20
147.198847013
 30
0.0
 11
135.234513316
 21
164.032857104
 31
0.0
  0
ARC
  5
236
330
1D
100
AcDbEntity
  8
0
  6
Continuous
 62
     1
380
     2
100
AcDbCircle
 10
133.47711864
 20
154.327118607
 30
0.0
 40
0.5
100
AcDbArc
 50
0.0
 51
89.99962143100001
  0
CIRCLE
  5
237
330
1D
100
AcDbEntity
  8
0
  6
Continuous
 62
     1
380
     2
100
AcDbCircle
 10
130.827118641
 20
159.327118602
 30
0.0
 40
2.0
  0
CIRCLE
  5
238
330
1D
100
AcDbEntity
  8
0
  6
Continuous
 62
     1
380
     2
100
AcDbCircle
 10
125.727118641
 20
159.327118603
 30
0.0
 40
2.0
  0
CIRCLE
  5
239
330
1D
100
AcDbEntity
  8
0
  6
Continuous
 62
     1
380
     2
100
AcDbCircle
 10
115.727118641
 20
159.327118606
 30
0.0
 40
2.0
  0
CIRCLE
  5
23A
330
1D
100
AcDbEntity
  8
0
  6
Continuous
 62
     1
380
     2
100
AcDbCircle
 10
120.827118641
 20
159.327118605
 30
0.0
 40
2.0
  0
CIRCLE
  5
23B
330
1D
100
AcDbEntity
  8
0
  6
Continuous
 62
     1
380
     2
100
AcDbCircle
 10
103.827118641
 20
159.927118608
 30
0.0
 40
1.75
  0
CIRCLE
  5
23C
330
1D
100
AcDbEntity
  8
0
  6
Continuous
 62
     1
380
     2
100
AcDbCircle
 10
99.32711864099999
 20
159.927118608
 30
0.0
 40
1.75
  0
CIRCLE
  5
23D
330
1D
100
AcDbEntity
  8
0
  6
Continuous
 62
     1
380
     2
100
AcDbCircle
 10
110.727118641
 20
159.327118607
 30
0.0
 40
2.0
  0
ARC
  5
23E
330
1D
100
AcDbEntity
  8
0
  6
Continuous
 62
     1
380
     2
100
AcDbCircle
 10
91.719691036
 20
164.027118612
 30
0.0
 40
0.5
100
AcDbArc
 50
89.99999999100001
 51
179.342401565
  0
LINE
  5
23F
330
1D
100
AcDbEntity
  8
0
  6
Continuous
 62
     1
380
     2
100
AcDbLine
 10
91.719691036
 20
164.527118612
 30
0.0
 11
113.227118642
 21
164.527118607
 31
0.0
  0
ARC
  5
240
330
1D
100
AcDbEntity
  8
0
  6
Continuous
 62
     1
380
     2
100
AcDbCircle
 10
91.637018216
 20
156.327118611
 30
0.0
 40
0.5
100
AcDbArc
 50
90.0
 51
180.0
  0
ARC
  5
241
330
1D
100
AcDbEntity
  8
0
  6
Continuous
 62
     1
380
     2
100
AcDbCircle
 10
92.97711864
 20
154.327118608
 30
0.0
 40
0.5
100
AcDbArc
 50
90.0
 51
180.000000001
  0
LINE
  5
242
330
1D
100
AcDbEntity
  8
0
  6
Continuous
 62
     1
380
     2
100
AcDbLine
 10
92.47711864000001
 20
154.327118608
 30
0.0
 11
92.47711863899999
 21
134.827121623
 31
0.0
  0
LINE
  5
243
330
1D
100
AcDbEntity
  8
0
  6
Continuous
 62
     1
380
     2
100
AcDbLine
 10
134.817219066
 20
156.827118606
 30
0.0
 11
91.537018216
 21
156.827118608
 31
0.0
  0
LINE
  5
244
330
1D
100
AcDbEntity
  8
0
  6
Continuous
 62
     1
380
     2
100
AcDbLine
 10
133.477121943
 20
154.827118607
 30
0.0
 11
92.97711864
 21
154.827118608
 31
0.0
  0
LINE
  5
245
330
1D
100
AcDbEntity
  8
0
  6
Continuous
 62
     1
380
     2
100
AcDbLine
 10
91.02650720499999
 20
147.198846857
 30
0.0
 11
91.219723967
 21
164.032857115
 31
0.0
  0
ARC
  5
246
330
1D
100
AcDbEntity
  8
0
  6
Continuous
 62
     1
380
     2
100
AcDbCircle
 10
89.67711862500001
 20
91.47711862399999
 30
0.0
 40
0.5
100
AcDbArc
 50
90.0
 51
180.0
  0
ARC
  5
247
330
1D
100
AcDbEntity
  8
0
  6
Continuous
 62
     1
380
     2
100
AcDbCircle
 10
89.67711862500001
 20
91.47711862399999
 30
0.0
 40
0.25
100
AcDbArc
 50
90.0
 51
180.0
  0
LINE
  5
248
330
1D
100
AcDbEntity
  8
0
  6
Continuous
 62
     1
380
     2
100
AcDbLine
 10
89.42711862500001
 20
91.47711862399999
 30
0.0
 11
89.42711862500001
 21
90.47711862399999
 31
0.0
  0
LINE
  5
249
330
1D
100
AcDbEntity
  8
0
  6
Continuous
 62
     1
380
     2
100
AcDbLine
 10
113.177118625
 20
90.47711861699999
 30
0.0
 11
89.177118625
 21
90.47711862399999
 31
0.0
  0
LINE
  5
24A
330
1D
100
AcDbEntity
  8
0
  6
Continuous
 62
     1
380
     2
100
AcDbLine
 10
88.07711862399999
 20
84.977118624
 30
0.0
 11
89.157118624
 21
84.977118624
 31
0.0
  0
LINE
  5
24B
330
1D
100
AcDbEntity
  8
0
  6
Continuous
 62
     1
380
     2
100
AcDbLine
 10
88.07711862399999
 20
84.977118624
 30
0.0
 11
88.07711862200001
 21
79.977118624
 31
0.0
  0
LINE
  5
24C
330
1D
100
AcDbEntity
  8
0
  6
Continuous
 62
     1
380
     2
100
AcDbLine
 10
88.27711862399999
 20
84.977118624
 30
0.0
 11
88.27711862200001
 21
79.977118624
 31
0.0
  0
LINE
  5
24D
330
1D
100
AcDbEntity
  8
0
  6
Continuous
 62
     1
380
     2
100
AcDbLine
 10
88.477118624
 20
84.977118624
 30
0.0
 11
88.477118622
 21
79.977118624
 31
0.0
  0
LINE
  5
24E
330
1D
100
AcDbEntity
  8
0
  6
Continuous
 62
     1
380
     2
100
AcDbLine
 10
88.677118624
 20
84.977118624
 30
0.0
 11
88.67711862200001
 21
79.977118624
 31
0.0
  0
LINE
  5
24F
330
1D
100
AcDbEntity
  8
0
  6
Continuous
 62
     1
380
     2
100
AcDbLine
 10
88.87711862399999
 20
84.977118624
 30
0.0
 11
88.87711862200001
 21
79.977118624
 31
0.0
  0
LINE
  5
250
330
1D
100
AcDbEntity
  8
0
  6
Continuous
 62
     1
380
     2
100
AcDbLine
 10
88.07711862099999
 20
74.977118624
 30
0.0
 11
89.15711862100001
 21
74.977118624
 31
0.0
  0
LINE
  5
251
330
1D
100
AcDbEntity
  8
0
  6
Continuous
 62
     1
380
     2
100
AcDbLine
 10
88.07711862099999
 20
74.977118624
 30
0.0
 11
88.07711862200001
 21
79.977118624
 31
0.0
  0
LINE
  5
252
330
1D
100
AcDbEntity
  8
0
  6
Continuous
 62
     1
380
     2
100
AcDbLine
 10
88.27711862100001
 20
74.977118624
 30
0.0
 11
88.27711862200001
 21
79.977118624
 31
0.0
  0
LINE
  5
253
330
1D
100
AcDbEntity
  8
0
  6
Continuous
 62
     1
380
     2
100
AcDbLine
 10
88.477118621
 20
74.977118624
 30
0.0
 11
88.477118622
 21
79.977118624
 31
0.0
  0
LINE
  5
254
330
1D
100
AcDbEntity
  8
0
  6
Continuous
 62
     1
380
     2
100
AcDbLine
 10
88.677118621
 20
74.977118624
 30
0.0
 11
88.67711862200001
 21
79.977118624
 31
0.0
  0
LINE
  5
255
330
1D
100
AcDbEntity
  8
0
  6
Continuous
 62
     1
380
     2
100
AcDbLine
 10
88.87711862100001
 20
74.977118624
 30
0.0
 11
88.87711862200001
 21
79.977118624
 31
0.0
  0
ARC
  5
256
330
1D
100
AcDbEntity
  8
0
  6
Continuous
 62
     1
380
     2
100
AcDbCircle
 10
89.67711861899999
 20
68.477118624
 30
0.0
 40
0.25
100
AcDbArc
 50
180.0
 51
270.0
  0
LINE
  5
257
330
1D
100
AcDbEntity
  8
0
  6
Continuous
 62
     1
380
     2
100
AcDbLine
 10
89.42711862000001
 20
69.477118624
 30
0.0
 11
89.42711861899999
 21
68.477118624
 31
0.0
  0
ARC
  5
258
330
1D
100
AcDbEntity
  8
0
  6
Continuous
 62
     1
380
     2
100
AcDbCircle
 10
89.67711861899999
 20
68.477118624
 30
0.0
 40
0.5
100
AcDbArc
 50
180.000000001
 51
270.0
  0
LINE
  5
259
330
1D
100
AcDbEntity
  8
0
  6
Continuous
 62
     1
380
     2
100
AcDbLine
 10
89.177118625
 20
91.47711862399999
 30
0.0
 11
89.177118619
 21
68.477118624
 31
0.0
  0
LINE
  5
25A
330
1D
100
AcDbEntity
  8
0
  6
Continuous
 62
     1
380
     2
100
AcDbLine
 10
138.277118621
 20
74.977118611
 30
0.0
 11
137.197118621
 21
74.977118611
 31
0.0
  0
LINE
  5
25B
330
1D
100
AcDbEntity
  8
0
  6
Continuous
 62
     1
380
     2
100
AcDbLine
 10
138.277118621
 20
74.977118611
 30
0.0
 11
138.277118622
 21
79.977118611
 31
0.0
  0
LINE
  5
25C
330
1D
100
AcDbEntity
  8
0
  6
Continuous
 62
     1
380
     2
100
AcDbLine
 10
138.077118621
 20
74.977118611
 30
0.0
 11
138.077118622
 21
79.977118611
 31
0.0
  0
LINE
  5
25D
330
1D
100
AcDbEntity
  8
0
  6
Continuous
 62
     1
380
     2
100
AcDbLine
 10
137.877118621
 20
74.977118611
 30
0.0
 11
137.877118622
 21
79.977118611
 31
0.0
  0
LINE
  5
25E
330
1D
100
AcDbEntity
  8
0
  6
Continuous
 62
     1
380
     2
100
AcDbLine
 10
137.677118621
 20
74.977118611
 30
0.0
 11
137.677118622
 21
79.977118611
 31
0.0
  0
LINE
  5
25F
330
1D
100
AcDbEntity
  8
0
  6
Continuous
 62
     1
380
     2
100
AcDbLine
 10
137.477118621
 20
74.977118611
 30
0.0
 11
137.477118622
 21
79.977118611
 31
0.0
  0
ARC
  5
260
330
1D
100
AcDbEntity
  8
0
  6
Continuous
 62
     1
380
     2
100
AcDbCircle
 10
136.677118619
 20
68.47711861100001
 30
0.0
 40
0.25
100
AcDbArc
 50
270.0
 51
0.0
  0
LINE
  5
261
330
1D
100
AcDbEntity
  8
0
  6
Continuous
 62
     1
380
     2
100
AcDbLine
 10
136.927118619
 20
68.47711861100001
 30
0.0
 11
136.92711862
 21
69.47711861100001
 31
0.0
  0
ARC
  5
262
330
1D
100
AcDbEntity
  8
0
  6
Continuous
 62
     1
380
     2
100
AcDbCircle
 10
136.677118619
 20
68.47711861100001
 30
0.0
 40
0.5
100
AcDbArc
 50
270.0
 51
0.000066922
  0
LINE
  5
263
330
1D
100
AcDbEntity
  8
0
  6
Continuous
 62
     1
380
     2
100
AcDbLine
 10
89.67711861899999
 20
67.97711862399999
 30
0.0
 11
136.677118619
 21
67.97711861100001
 31
0.0
  0
LINE
  5
264
330
1D
100
AcDbEntity
  8
0
  6
Continuous
 62
     1
380
     2
100
AcDbLine
 10
89.67711861899999
 20
68.227118624
 30
0.0
 11
136.677118619
 21
68.22711861100001
 31
0.0
  0
LINE
  5
265
330
1D
100
AcDbEntity
  8
0
  6
Continuous
 62
     1
380
     2
100
AcDbLine
 10
89.42
 20
69.477118624
 30
0.0
 11
137.17711862
 21
69.47711861100001
 31
0.0
  0
LINE
  5
266
330
1D
100
AcDbEntity
  8
0
  6
Continuous
 62
     1
380
     2
100
AcDbLine
 10
138.277118624
 20
84.977118611
 30
0.0
 11
137.197118624
 21
84.977118611
 31
0.0
  0
LINE
  5
267
330
1D
100
AcDbEntity
  8
0
  6
Continuous
 62
     1
380
     2
100
AcDbLine
 10
138.277118624
 20
84.977118611
 30
0.0
 11
138.277118622
 21
79.977118611
 31
0.0
  0
LINE
  5
268
330
1D
100
AcDbEntity
  8
0
  6
Continuous
 62
     1
380
     2
100
AcDbLine
 10
138.077118624
 20
84.977118611
 30
0.0
 11
138.077118622
 21
79.977118611
 31
0.0
  0
LINE
  5
269
330
1D
100
AcDbEntity
  8
0
  6
Continuous
 62
     1
380
     2
100
AcDbLine
 10
137.877118624
 20
84.977118611
 30
0.0
 11
137.877118622
 21
79.977118611
 31
0.0
  0
LINE
  5
26A
330
1D
100
AcDbEntity
  8
0
  6
Continuous
 62
     1
380
     2
100
AcDbLine
 10
137.677118624
 20
84.977118611
 30
0.0
 11
137.677118622
 21
79.977118611
 31
0.0
  0
LINE
  5
26B
330
1D
100
AcDbEntity
  8
0
  6
Continuous
 62
     1
380
     2
100
AcDbLine
 10
137.477118624
 20
84.977118611
 30
0.0
 11
137.477118622
 21
79.977118611
 31
0.0
  0
ARC
  5
26C
330
1D
100
AcDbEntity
  8
0
  6
Continuous
 62
     1
380
     2
100
AcDbCircle
 10
136.677118625
 20
91.47711861100001
 30
0.0
 40
0.5
100
AcDbArc
 50
0.0
 51
90.0
  0
ARC
  5
26D
330
1D
100
AcDbEntity
  8
0
  6
Continuous
 62
     1
380
     2
100
AcDbCircle
 10
136.677118625
 20
91.47711861100001
 30
0.0
 40
0.25
100
AcDbArc
 50
0.0
 51
90.0
  0
LINE
  5
26E
330
1D
100
AcDbEntity
  8
0
  6
Continuous
 62
     1
380
     2
100
AcDbLine
 10
136.927118625
 20
90.47711861100001
 30
0.0
 11
136.927118625
 21
91.47711861100001
 31
0.0
  0
LINE
  5
26F
330
1D
100
AcDbEntity
  8
0
  6
Continuous
 62
     1
380
     2
100
AcDbLine
 10
113.177118625
 20
90.47711861699999
 30
0.0
 11
137.177118625
 21
90.47711861100001
 31
0.0
  0
LINE
  5
270
330
1D
100
AcDbEntity
  8
0
  6
Continuous
 62
     1
380
     2
100
AcDbLine
 10
136.677118626
 20
91.97711861100001
 30
0.0
 11
89.67711862600001
 21
91.977118624
 31
0.0
  0
LINE
  5
271
330
1D
100
AcDbEntity
  8
0
  6
Continuous
 62
     1
380
     2
100
AcDbLine
 10
136.677118625
 20
91.72711861100001
 30
0.0
 11
89.67711862500001
 21
91.72711862399999
 31
0.0
  0
LINE
  5
272
330
1D
100
AcDbEntity
  8
0
  6
Continuous
 62
     1
380
     2
100
AcDbLine
 10
137.177118619
 20
68.477119195
 30
0.0
 11
137.177118625
 21
91.47711861100001
 31
0.0
  0
LINE
  5
273
330
1D
100
AcDbEntity
  8
0
  6
Continuous
 62
     1
380
     2
100
AcDbLine
 10
130.58
 20
86.07499999999999
 30
0.0
 11
127.03
 21
86.07499999999999
 31
0.0
  0
LINE
  5
274
330
1D
100
AcDbEntity
  8
0
  6
Continuous
 62
     1
380
     2
100
AcDbLine
 10
130.58
 20
86.07499999999999
 30
0.0
 11
130.98
 21
85.575
 31
0.0
  0
LINE
  5
275
330
1D
100
AcDbEntity
  8
0
  6
Continuous
 62
     1
380
     2
100
AcDbLine
 10
130.98
 20
85.575
 30
0.0
 11
130.38
 21
85.075
 31
0.0
  0
LINE
  5
276
330
1D
100
AcDbEntity
  8
0
  6
Continuous
 62
     1
380
     2
100
AcDbLine
 10
130.38
 20
84.975
 30
0.0
 11
130.98
 21
85.47499999999999
 31
0.0
  0
LINE
  5
277
330
1D
100
AcDbEntity
  8
0
  6
Continuous
 62
     1
380
     2
100
AcDbLine
 10
130.98
 20
85.47499999999999
 30
0.0
 11
131.38
 21
85.075
 31
0.0
  0
LINE
  5
278
330
1D
100
AcDbEntity
  8
0
  6
Continuous
 62
     1
380
     2
100
AcDbLine
 10
131.38
 20
85.075
 30
0.0
 11
130.78
 21
81.47499999999999
 31
0.0
  0
LINE
  5
279
330
1D
100
AcDbEntity
  8
0
  6
Continuous
 62
     1
380
     2
100
AcDbLine
 10
125.23
 20
75.875
 30
0.0
 11
124.78
 21
76.375
 31
0.0
  0
LINE
  5
27A
330
1D
100
AcDbEntity
  8
0
  6
Continuous
 62
     1
380
     2
100
AcDbLine
 10
124.78
 20
76.375
 30
0.0
 11
125.43
 21
76.875
 31
0.0
  0
LINE
  5
27B
330
1D
100
AcDbEntity
  8
0
  6
Continuous
 62
     1
380
     2
100
AcDbLine
 10
125.38
 20
76.97499999999999
 30
0.0
 11
125.98
 21
80.37499999999999
 31
0.0
  0
LINE
  5
27C
330
1D
100
AcDbEntity
  8
0
  6
Continuous
 62
     1
380
     2
100
AcDbLine
 10
125.38
 20
76.97499999999999
 30
0.0
 11
124.78
 21
76.47499999999999
 31
0.0
  0
LINE
  5
27D
330
1D
100
AcDbEntity
  8
0
  6
Continuous
 62
     1
380
     2
100
AcDbLine
 10
124.78
 20
76.47499999999999
 30
0.0
 11
124.33
 21
76.875
 31
0.0
  0
LINE
  5
27E
330
1D
100
AcDbEntity
  8
0
  6
Continuous
 62
     1
380
     2
100
AcDbLine
 10
128.98
 20
76.875
 30
0.0
 11
129.38
 21
76.375
 31
0.0
  0
LINE
  5
27F
330
1D
100
AcDbEntity
  8
0
  6
Continuous
 62
     1
380
     2
100
AcDbLine
 10
129.38
 20
76.375
 30
0.0
 11
128.78
 21
75.875
 31
0.0
  0
LINE
  5
280
330
1D
100
AcDbEntity
  8
0
  6
Continuous
 62
     1
380
     2
100
AcDbLine
 10
130.58
 20
80.47499999999999
 30
0.0
 11
129.98
 21
76.875
 31
0.0
  0
LINE
  5
281
330
1D
100
AcDbEntity
  8
0
  6
Continuous
 62
     1
380
     2
100
AcDbLine
 10
129.98
 20
76.875
 30
0.0
 11
129.43
 21
76.47499999999999
 31
0.0
  0
LINE
  5
282
330
1D
100
AcDbEntity
  8
0
  6
Continuous
 62
     1
380
     2
100
AcDbLine
 10
129.43
 20
76.47499999999999
 30
0.0
 11
128.98
 21
76.97499999999999
 31
0.0
  0
LINE
  5
283
330
1D
100
AcDbEntity
  8
0
  6
Continuous
 62
     1
380
     2
100
AcDbLine
 10
128.98
 20
76.97499999999999
 30
0.0
 11
129.58
 21
80.37499999999999
 31
0.0
  0
LINE
  5
284
330
1D
100
AcDbEntity
  8
0
  6
Continuous
 62
     1
380
     2
100
AcDbLine
 10
128.98
 20
76.875
 30
0.0
 11
125.43
 21
76.875
 31
0.0
  0
LINE
  5
285
330
1D
100
AcDbEntity
  8
0
  6
Continuous
 62
     1
380
     2
100
AcDbLine
 10
125.23
 20
75.875
 30
0.0
 11
128.78
 21
75.875
 31
0.0
  0
LINE
  5
286
330
1D
100
AcDbEntity
  8
0
  6
Continuous
 62
     1
380
     2
100
AcDbLine
 10
129.78
 20
81.47499999999999
 30
0.0
 11
130.18
 21
80.975
 31
0.0
  0
LINE
  5
287
330
1D
100
AcDbEntity
  8
0
  6
Continuous
 62
     1
380
     2
100
AcDbLine
 10
130.18
 20
80.975
 30
0.0
 11
129.58
 21
80.47499999999999
 31
0.0
  0
LINE
  5
288
330
1D
100
AcDbEntity
  8
0
  6
Continuous
 62
     1
380
     2
100
AcDbLine
 10
130.78
 20
81.47499999999999
 30
0.0
 11
130.23
 21
81.07499999999999
 31
0.0
  0
LINE
  5
289
330
1D
100
AcDbEntity
  8
0
  6
Continuous
 62
     1
380
     2
100
AcDbLine
 10
130.23
 20
81.07499999999999
 30
0.0
 11
129.78
 21
81.575
 31
0.0
  0
LINE
  5
28A
330
1D
100
AcDbEntity
  8
0
  6
Continuous
 62
     1
380
     2
100
AcDbLine
 10
129.58
 20
80.37499999999999
 30
0.0
 11
130.18
 21
80.875
 31
0.0
  0
LINE
  5
28B
330
1D
100
AcDbEntity
  8
0
  6
Continuous
 62
     1
380
     2
100
AcDbLine
 10
130.18
 20
80.875
 30
0.0
 11
130.58
 21
80.47499999999999
 31
0.0
  0
LINE
  5
28C
330
1D
100
AcDbEntity
  8
0
  6
Continuous
 62
     1
380
     2
100
AcDbLine
 10
129.78
 20
81.575
 30
0.0
 11
130.38
 21
84.975
 31
0.0
  0
LINE
  5
28D
330
1D
100
AcDbEntity
  8
0
  6
Continuous
 62
     1
380
     2
100
AcDbLine
 10
126.03
 20
80.47499999999999
 30
0.0
 11
129.58
 21
80.47499999999999
 31
0.0
  0
LINE
  5
28E
330
1D
100
AcDbEntity
  8
0
  6
Continuous
 62
     1
380
     2
100
AcDbLine
 10
126.03
 20
80.47499999999999
 30
0.0
 11
125.58
 21
80.975
 31
0.0
  0
LINE
  5
28F
330
1D
100
AcDbEntity
  8
0
  6
Continuous
 62
     1
380
     2
100
AcDbLine
 10
125.58
 20
80.975
 30
0.0
 11
126.23
 21
81.47499999999999
 31
0.0
  0
LINE
  5
290
330
1D
100
AcDbEntity
  8
0
  6
Continuous
 62
     1
380
     2
100
AcDbLine
 10
125.98
 20
80.37499999999999
 30
0.0
 11
125.53
 21
80.875
 31
0.0
  0
LINE
  5
291
330
1D
100
AcDbEntity
  8
0
  6
Continuous
 62
     1
380
     2
100
AcDbLine
 10
125.53
 20
80.875
 30
0.0
 11
124.98
 21
80.47499999999999
 31
0.0
  0
LINE
  5
292
330
1D
100
AcDbEntity
  8
0
  6
Continuous
 62
     1
380
     2
100
AcDbLine
 10
126.18
 20
81.575
 30
0.0
 11
125.58
 21
81.07499999999999
 31
0.0
  0
LINE
  5
293
330
1D
100
AcDbEntity
  8
0
  6
Continuous
 62
     1
380
     2
100
AcDbLine
 10
125.58
 20
81.07499999999999
 30
0.0
 11
125.13
 21
81.47499999999999
 31
0.0
  0
LINE
  5
294
330
1D
100
AcDbEntity
  8
0
  6
Continuous
 62
     1
380
     2
100
AcDbLine
 10
124.33
 20
76.875
 30
0.0
 11
124.98
 21
80.47499999999999
 31
0.0
  0
LINE
  5
295
330
1D
100
AcDbEntity
  8
0
  6
Continuous
 62
     1
380
     2
100
AcDbLine
 10
129.78
 20
81.47499999999999
 30
0.0
 11
126.23
 21
81.47499999999999
 31
0.0
  0
LINE
  5
296
330
1D
100
AcDbEntity
  8
0
  6
Continuous
 62
     1
380
     2
100
AcDbLine
 10
126.83
 20
85.075
 30
0.0
 11
126.38
 21
85.575
 31
0.0
  0
LINE
  5
297
330
1D
100
AcDbEntity
  8
0
  6
Continuous
 62
     1
380
     2
100
AcDbLine
 10
126.38
 20
85.575
 30
0.0
 11
127.03
 21
86.07499999999999
 31
0.0
  0
LINE
  5
298
330
1D
100
AcDbEntity
  8
0
  6
Continuous
 62
     1
380
     2
100
AcDbLine
 10
126.78
 20
84.975
 30
0.0
 11
126.33
 21
85.47499999999999
 31
0.0
  0
LINE
  5
299
330
1D
100
AcDbEntity
  8
0
  6
Continuous
 62
     1
380
     2
100
AcDbLine
 10
126.33
 20
85.47499999999999
 30
0.0
 11
125.78
 21
85.075
 31
0.0
  0
LINE
  5
29A
330
1D
100
AcDbEntity
  8
0
  6
Continuous
 62
     1
380
     2
100
AcDbLine
 10
126.83
 20
85.075
 30
0.0
 11
130.38
 21
85.075
 31
0.0
  0
LINE
  5
29B
330
1D
100
AcDbEntity
  8
0
  6
Continuous
 62
     1
380
     2
100
AcDbLine
 10
125.13
 20
81.47499999999999
 30
0.0
 11
125.78
 21
85.075
 31
0.0
  0
LINE
  5
29C
330
1D
100
AcDbEntity
  8
0
  6
Continuous
 62
     1
380
     2
100
AcDbLine
 10
126.18
 20
81.575
 30
0.0
 11
126.78
 21
84.975
 31
0.0
  0
LINE
  5
29D
330
1D
100
AcDbEntity
  8
0
  6
Continuous
 62
     1
380
     2
100
AcDbLine
 10
201.372881368
 20
129.827118611
 30
0.0
 11
225.372881368
 21
129.827118617
 31
0.0
  0
LINE
  5
29E
330
1D
100
AcDbEntity
  8
0
  6
Continuous
 62
     1
380
     2
100
AcDbLine
 10
201.982881367
 20
130.127118611
 30
0.0
 11
201.982881367
 21
130.377118611
 31
0.0
  0
LINE
  5
29F
330
1D
100
AcDbEntity
  8
0
  6
Continuous
 62
     1
380
     2
100
AcDbLine
 10
202.172881367
 20
130.127118611
 30
0.0
 11
201.982881367
 21
130.127118611
 31
0.0
  0
LINE
  5
2A0
330
1D
100
AcDbEntity
  8
0
  6
Continuous
 62
     1
380
     2
100
AcDbLine
 10
201.982881367
 20
130.377118611
 30
0.0
 11
201.792881367
 21
130.377118611
 31
0.0
  0
LINE
  5
2A1
330
1D
100
AcDbEntity
  8
0
  6
Continuous
 62
     1
380
     2
100
AcDbLine
 10
201.792881367
 20
130.377118611
 30
0.0
 11
201.792881367
 21
130.877118611
 31
0.0
  0
LINE
  5
2A2
330
1D
100
AcDbEntity
  8
0
  6
Continuous
 62
     1
380
     2
100
AcDbLine
 10
201.792881367
 20
130.877118611
 30
0.0
 11
201.602881367
 21
130.877118611
 31
0.0
  0
LINE
  5
2A3
330
1D
100
AcDbEntity
  8
0
  6
Continuous
 62
     1
380
     2
100
AcDbLine
 10
201.602881367
 20
130.877118611
 30
0.0
 11
201.602881367
 21
131.377118611
 31
0.0
  0
LINE
  5
2A4
330
1D
100
AcDbEntity
  8
0
  6
Continuous
 62
     1
380
     2
100
AcDbLine
 10
201.602881367
 20
131.377118611
 30
0.0
 11
201.412881367
 21
131.377118611
 31
0.0
  0
LINE
  5
2A5
330
1D
100
AcDbEntity
  8
0
  6
Continuous
 62
     1
380
     2
100
AcDbLine
 10
201.412881367
 20
131.377118611
 30
0.0
 11
201.412881367
 21
131.877118611
 31
0.0
  0
LINE
  5
2A6
330
1D
100
AcDbEntity
  8
0
  6
Continuous
 62
     1
380
     2
100
AcDbLine
 10
201.412881367
 20
131.877118611
 30
0.0
 11
201.222881367
 21
131.877118611
 31
0.0
  0
LINE
  5
2A7
330
1D
100
AcDbEntity
  8
0
  6
Continuous
 62
     1
380
     2
100
AcDbLine
 10
201.222881367
 20
131.877118611
 30
0.0
 11
201.222881367
 21
132.377118611
 31
0.0
  0
LINE
  5
2A8
330
1D
100
AcDbEntity
  8
0
  6
Continuous
 62
     1
380
     2
100
AcDbLine
 10
201.222881367
 20
132.377118611
 30
0.0
 11
201.032881367
 21
132.377118611
 31
0.0
  0
LINE
  5
2A9
330
1D
100
AcDbEntity
  8
0
  6
Continuous
 62
     1
380
     2
100
AcDbLine
 10
201.032881367
 20
132.377118611
 30
0.0
 11
201.032881367
 21
132.877118611
 31
0.0
  0
LINE
  5
2AA
330
1D
100
AcDbEntity
  8
0
  6
Continuous
 62
     1
380
     2
100
AcDbLine
 10
201.032881367
 20
132.877118611
 30
0.0
 11
200.842881367
 21
132.877118611
 31
0.0
  0
LINE
  5
2AB
330
1D
100
AcDbEntity
  8
0
  6
Continuous
 62
     1
380
     2
100
AcDbLine
 10
200.842881367
 20
132.877118611
 30
0.0
 11
200.842881367
 21
133.377118611
 31
0.0
  0
LINE
  5
2AC
330
1D
100
AcDbEntity
  8
0
  6
Continuous
 62
     1
380
     2
100
AcDbLine
 10
200.842881367
 20
133.377118611
 30
0.0
 11
200.652881367
 21
133.377118611
 31
0.0
  0
LINE
  5
2AD
330
1D
100
AcDbEntity
  8
0
  6
Continuous
 62
     1
380
     2
100
AcDbLine
 10
200.652881367
 20
133.377118611
 30
0.0
 11
200.652881366
 21
133.877118611
 31
0.0
  0
LINE
  5
2AE
330
1D
100
AcDbEntity
  8
0
  6
Continuous
 62
     1
380
     2
100
AcDbLine
 10
200.652881366
 20
133.877118611
 30
0.0
 11
200.462881366
 21
133.877118611
 31
0.0
  0
LINE
  5
2AF
330
1D
100
AcDbEntity
  8
0
  6
Continuous
 62
     1
380
     2
100
AcDbLine
 10
200.462881366
 20
133.877118611
 30
0.0
 11
200.462881366
 21
134.377118611
 31
0.0
  0
LINE
  5
2B0
330
1D
100
AcDbEntity
  8
0
  6
Continuous
 62
     1
380
     2
100
AcDbLine
 10
200.462881366
 20
134.377118611
 30
0.0
 11
200.272881366
 21
134.377118611
 31
0.0
  0
LINE
  5
2B1
330
1D
100
AcDbEntity
  8
0
  6
Continuous
 62
     1
380
     2
100
AcDbLine
 10
200.272881366
 20
134.377118611
 30
0.0
 11
200.272881366
 21
134.877118611
 31
0.0
  0
LINE
  5
2B2
330
1D
100
AcDbEntity
  8
0
  6
Continuous
 62
     1
380
     2
100
AcDbLine
 10
202.172881367
 20
130.127118611
 30
0.0
 11
202.772881366
 21
134.127118612
 31
0.0
  0
LINE
  5
2B3
330
1D
100
AcDbEntity
  8
0
  6
Continuous
 62
     1
380
     2
100
AcDbLine
 10
202.772881366
 20
134.127118612
 30
0.0
 11
202.572881366
 21
134.877118611
 31
0.0
  0
ARC
  5
2B4
330
1D
100
AcDbEntity
  8
0
  6
Continuous
 62
     1
380
     2
100
AcDbCircle
 10
179.372881364
 20
144.191623692
 30
0.0
 40
25.0
100
AcDbArc
 50
338.125166713
 51
341.192418184
  0
ARC
  5
2B5
330
1D
100
AcDbEntity
  8
0
  6
Continuous
 62
     1
380
     2
100
AcDbCircle
 10
178.179987139
 20
146.577718157
 30
0.0
 40
25.0
100
AcDbArc
 50
332.093894917
 51
1.423668968
  0
LINE
  5
2B6
330
1D
100
AcDbEntity
  8
0
  6
Continuous
 62
     1
380
     2
100
AcDbLine
 10
202.972881367
 20
129.827118615
 30
0.0
 11
203.14533474
 21
144.852118836
 31
0.0
  0
LINE
  5
2B7
330
1D
100
AcDbEntity
  8
0
  6
Continuous
 62
     1
380
     2
100
AcDbLine
 10
203.865453752
 20
164.527118601
 30
0.0
 11
225.372881358
 21
164.527118607
 31
0.0
  0
LINE
  5
2B8
330
1D
100
AcDbEntity
  8
0
  6
Continuous
 62
     1
380
     2
100
AcDbLine
 10
203.172269927
 20
147.198847013
 30
0.0
 11
203.365486684
 21
164.032857104
 31
0.0
  0
ARC
  5
2B9
330
1D
100
AcDbEntity
  8
0
  6
Continuous
 62
     1
380
     2
100
AcDbCircle
 10
203.865453752
 20
164.027118601
 30
0.0
 40
0.5
100
AcDbArc
 50
90.00000000899998
 51
179.342401565
  0
LINE
  5
2BA
330
1D
100
AcDbEntity
  8
0
  6
Continuous
 62
     1
380
     2
100
AcDbLine
 10
201.372881367
 20
129.827118616
 30
0.0
 11
201.596644424
 21
125.799383602
 31
0.0
  0
LINE
  5
2BB
330
1D
100
AcDbEntity
  8
0
  6
Continuous
 62
     1
380
     2
100
AcDbLine
 10
202.095874601
 20
125.327118611
 30
0.0
 11
225.372881369
 21
125.327118617
 31
0.0
  0
ARC
  5
2BC
330
1D
100
AcDbEntity
  8
0
  6
Continuous
 62
     1
380
     2
100
AcDbCircle
 10
202.0958746
 20
125.827118611
 30
0.0
 40
0.5
100
AcDbArc
 50
183.17983012
 51
270.000000011
  0
LINE
  5
2BD
330
1D
100
AcDbEntity
  8
0
  6
Continuous
 62
     1
380
     2
100
AcDbLine
 10
202.125
 20
125.3
 30
0.0
 11
202.125
 21
124.8
 31
0.0
  0
LINE
  5
2BE
330
1D
100
AcDbEntity
  8
0
  6
Continuous
 62
     1
380
     2
100
AcDbLine
 10
249.372881368
 20
129.827118624
 30
0.0
 11
225.372881368
 21
129.827118617
 31
0.0
  0
LINE
  5
2BF
330
1D
100
AcDbEntity
  8
0
  6
Continuous
 62
     1
380
     2
100
AcDbLine
 10
248.762881367
 20
130.127118624
 30
0.0
 11
248.762881367
 21
130.377118624
 31
0.0
  0
LINE
  5
2C0
330
1D
100
AcDbEntity
  8
0
  6
Continuous
 62
     1
380
     2
100
AcDbLine
 10
248.572881367
 20
130.127118624
 30
0.0
 11
248.762881367
 21
130.127118624
 31
0.0
  0
LINE
  5
2C1
330
1D
100
AcDbEntity
  8
0
  6
Continuous
 62
     1
380
     2
100
AcDbLine
 10
248.762881367
 20
130.377118624
 30
0.0
 11
248.952881367
 21
130.377118624
 31
0.0
  0
LINE
  5
2C2
330
1D
100
AcDbEntity
  8
0
  6
Continuous
 62
     1
380
     2
100
AcDbLine
 10
248.952881367
 20
130.377118624
 30
0.0
 11
248.952881367
 21
130.877118624
 31
0.0
  0
LINE
  5
2C3
330
1D
100
AcDbEntity
  8
0
  6
Continuous
 62
     1
380
     2
100
AcDbLine
 10
248.952881367
 20
130.877118624
 30
0.0
 11
249.142881367
 21
130.877118624
 31
0.0
  0
LINE
  5
2C4
330
1D
100
AcDbEntity
  8
0
  6
Continuous
 62
     1
380
     2
100
AcDbLine
 10
249.142881367
 20
130.877118624
 30
0.0
 11
249.142881367
 21
131.377118624
 31
0.0
  0
LINE
  5
2C5
330
1D
100
AcDbEntity
  8
0
  6
Continuous
 62
     1
380
     2
100
AcDbLine
 10
249.142881367
 20
131.377118624
 30
0.0
 11
249.332881367
 21
131.377118624
 31
0.0
  0
LINE
  5
2C6
330
1D
100
AcDbEntity
  8
0
  6
Continuous
 62
     1
380
     2
100
AcDbLine
 10
249.332881367
 20
131.377118624
 30
0.0
 11
249.332881367
 21
131.877118624
 31
0.0
  0
LINE
  5
2C7
330
1D
100
AcDbEntity
  8
0
  6
Continuous
 62
     1
380
     2
100
AcDbLine
 10
249.332881367
 20
131.877118624
 30
0.0
 11
249.522881367
 21
131.877118624
 31
0.0
  0
LINE
  5
2C8
330
1D
100
AcDbEntity
  8
0
  6
Continuous
 62
     1
380
     2
100
AcDbLine
 10
249.522881367
 20
131.877118624
 30
0.0
 11
249.522881367
 21
132.377118624
 31
0.0
  0
LINE
  5
2C9
330
1D
100
AcDbEntity
  8
0
  6
Continuous
 62
     1
380
     2
100
AcDbLine
 10
249.522881367
 20
132.377118624
 30
0.0
 11
249.712881367
 21
132.377118624
 31
0.0
  0
LINE
  5
2CA
330
1D
100
AcDbEntity
  8
0
  6
Continuous
 62
     1
380
     2
100
AcDbLine
 10
249.712881367
 20
132.377118624
 30
0.0
 11
249.712881367
 21
132.877118624
 31
0.0
  0
LINE
  5
2CB
330
1D
100
AcDbEntity
  8
0
  6
Continuous
 62
     1
380
     2
100
AcDbLine
 10
249.712881367
 20
132.877118624
 30
0.0
 11
249.902881367
 21
132.877118624
 31
0.0
  0
LINE
  5
2CC
330
1D
100
AcDbEntity
  8
0
  6
Continuous
 62
     1
380
     2
100
AcDbLine
 10
249.902881367
 20
132.877118624
 30
0.0
 11
249.902881367
 21
133.377118624
 31
0.0
  0
LINE
  5
2CD
330
1D
100
AcDbEntity
  8
0
  6
Continuous
 62
     1
380
     2
100
AcDbLine
 10
249.902881367
 20
133.377118624
 30
0.0
 11
250.092881367
 21
133.377118624
 31
0.0
  0
LINE
  5
2CE
330
1D
100
AcDbEntity
  8
0
  6
Continuous
 62
     1
380
     2
100
AcDbLine
 10
250.092881367
 20
133.377118624
 30
0.0
 11
250.092881366
 21
133.877118624
 31
0.0
  0
LINE
  5
2CF
330
1D
100
AcDbEntity
  8
0
  6
Continuous
 62
     1
380
     2
100
AcDbLine
 10
250.092881366
 20
133.877118624
 30
0.0
 11
250.282881366
 21
133.877118624
 31
0.0
  0
LINE
  5
2D0
330
1D
100
AcDbEntity
  8
0
  6
Continuous
 62
     1
380
     2
100
AcDbLine
 10
250.282881366
 20
133.877118624
 30
0.0
 11
250.282881366
 21
134.377118624
 31
0.0
  0
LINE
  5
2D1
330
1D
100
AcDbEntity
  8
0
  6
Continuous
 62
     1
380
     2
100
AcDbLine
 10
250.282881366
 20
134.377118624
 30
0.0
 11
250.472881366
 21
134.377118624
 31
0.0
  0
LINE
  5
2D2
330
1D
100
AcDbEntity
  8
0
  6
Continuous
 62
     1
380
     2
100
AcDbLine
 10
250.472881366
 20
134.377118624
 30
0.0
 11
250.472881366
 21
134.877118624
 31
0.0
  0
LINE
  5
2D3
330
1D
100
AcDbEntity
  8
0
  6
Continuous
 62
     1
380
     2
100
AcDbLine
 10
248.572881367
 20
130.127118624
 30
0.0
 11
247.972881366
 21
134.127118623
 31
0.0
  0
LINE
  5
2D4
330
1D
100
AcDbEntity
  8
0
  6
Continuous
 62
     1
380
     2
100
AcDbLine
 10
247.972881366
 20
134.127118623
 30
0.0
 11
248.172881366
 21
134.877118623
 31
0.0
  0
ARC
  5
2D5
330
1D
100
AcDbEntity
  8
0
  6
Continuous
 62
     1
380
     2
100
AcDbCircle
 10
271.372881364
 20
144.191623716
 30
0.0
 40
25.0
100
AcDbArc
 50
198.807581816
 51
201.874833287
  0
ARC
  5
2D6
330
1D
100
AcDbEntity
  8
0
  6
Continuous
 62
     1
380
     2
100
AcDbCircle
 10
272.565775587
 20
146.577718181
 30
0.0
 40
25.0
100
AcDbArc
 50
178.576331435
 51
207.906105083
  0
LINE
  5
2D7
330
1D
100
AcDbEntity
  8
0
  6
Continuous
 62
     1
380
     2
100
AcDbLine
 10
247.772881356
 20
129.82711862
 30
0.0
 11
247.603986087
 21
144.54211884
 31
0.0
  0
LINE
  5
2D8
330
1D
100
AcDbEntity
  8
0
  6
Continuous
 62
     1
380
     2
100
AcDbLine
 10
246.880308964
 20
164.527118612
 30
0.0
 11
225.372881358
 21
164.527118607
 31
0.0
  0
LINE
  5
2D9
330
1D
100
AcDbEntity
  8
0
  6
Continuous
 62
     1
380
     2
100
AcDbLine
 10
247.573492795
 20
147.198846857
 30
0.0
 11
247.380276033
 21
164.032857115
 31
0.0
  0
ARC
  5
2DA
330
1D
100
AcDbEntity
  8
0
  6
Continuous
 62
     1
380
     2
100
AcDbCircle
 10
246.880308964
 20
164.027118612
 30
0.0
 40
0.5
100
AcDbArc
 50
0.6575984349999999
 51
90.00000000899998
  0
LINE
  5
2DB
330
1D
100
AcDbEntity
  8
0
  6
Continuous
 62
     1
380
     2
100
AcDbLine
 10
248.649888135
 20
125.327118624
 30
0.0
 11
225.372881369
 21
125.327118617
 31
0.0
  0
LINE
  5
2DC
330
1D
100
AcDbEntity
  8
0
  6
Continuous
 62
     1
380
     2
100
AcDbLine
 10
249.372881368
 20
129.827118624
 30
0.0
 11
249.149118312
 21
125.799383614
 31
0.0
  0
ARC
  5
2DD
330
1D
100
AcDbEntity
  8
0
  6
Continuous
 62
     1
380
     2
100
AcDbCircle
 10
248.649888135
 20
125.827118624
 30
0.0
 40
0.5
100
AcDbArc
 50
270.000000011
 51
356.82016988
  0
LINE
  5
2DE
330
1D
100
AcDbEntity
  8
0
  6
Continuous
 62
     1
380
     2
100
AcDbLine
 10
248.625
 20
124.8
 30
0.0
 11
248.625
 21
125.3
 31
0.0
  0
LINE
  5
2DF
330
1D
100
AcDbEntity
  8
0
  6
Continuous
 62
     1
380
     2
100
AcDbLine
 10
202.125
 20
124.8
 30
0.0
 11
248.625
 21
124.8
 31
0.0
  0
LINE
  5
2E0
330
1D
100
AcDbEntity
  8
0
  6
Continuous
 62
     1
380
     2
100
AcDbLine
 10
222.352118646
 20
128.527118604
 30
0.0
 11
222.352118645
 21
127.327118602
 31
0.0
  0
LINE
  5
2E1
330
1D
100
AcDbEntity
  8
0
  6
Continuous
 62
     1
380
     2
100
AcDbLine
 10
222.352118645
 20
127.327118602
 30
0.0
 11
228.352118645
 21
127.327118602
 31
0.0
  0
LINE
  5
2E2
330
1D
100
AcDbEntity
  8
0
  6
Continuous
 62
     1
380
     2
100
AcDbLine
 10
228.375
 20
128.525
 30
0.0
 11
222.325
 21
128.525
 31
0.0
  0
LINE
  5
2E3
330
1D
100
AcDbEntity
  8
0
  6
Continuous
 62
     1
380
     2
100
AcDbLine
 10
228.352118645
 20
127.327118602
 30
0.0
 11
228.352118646
 21
128.527118603
 31
0.0
  0
LINE
  5
2E4
330
1D
100
AcDbEntity
  8
0
  6
Continuous
 62
     1
380
     2
100
AcDbLine
 10
221.352118647
 20
135.027118604
 30
0.0
 11
229.352118647
 21
135.027118603
 31
0.0
  0
LINE
  5
2E5
330
1D
100
AcDbEntity
  8
0
  6
Continuous
 62
     1
380
     2
100
AcDbLine
 10
229.352118647
 20
135.027118603
 30
0.0
 11
229.352118647
 21
133.227118603
 31
0.0
  0
LINE
  5
2E6
330
1D
100
AcDbEntity
  8
0
  6
Continuous
 62
     1
380
     2
100
AcDbLine
 10
229.352118647
 20
133.227118603
 30
0.0
 11
225.352118647
 21
133.227118603
 31
0.0
  0
LINE
  5
2E7
330
1D
100
AcDbEntity
  8
0
  6
Continuous
 62
     1
380
     2
100
AcDbLine
 10
225.352118647
 20
133.227118603
 30
0.0
 11
221.352118647
 21
133.227118604
 31
0.0
  0
LINE
  5
2E8
330
1D
100
AcDbEntity
  8
0
  6
Continuous
 62
     1
380
     2
100
AcDbLine
 10
221.352118647
 20
133.227118604
 30
0.0
 11
221.352118647
 21
135.027118604
 31
0.0
  0
ARC
  5
2E9
330
1D
100
AcDbEntity
  8
0
  6
Continuous
 62
     1
380
     2
100
AcDbCircle
 10
181.779913394
 20
164.027118622
 30
0.0
 40
0.5
100
AcDbArc
 50
0.8115006840000001
 51
90.0
  0
LINE
  5
2EA
330
1D
100
AcDbEntity
  8
0
  6
Continuous
 62
     1
380
     2
100
AcDbLine
 10
183.049888158
 20
125.327118619
 30
0.0
 11
182.272881391
 21
125.327118619
 31
0.0
  0
ARC
  5
2EB
330
1D
100
AcDbEntity
  8
0
  6
Continuous
 62
     1
380
     2
100
AcDbCircle
 10
183.049888158
 20
125.827118619
 30
0.0
 40
0.5
100
AcDbArc
 50
270.000000001
 51
356.82016988
  0
LINE
  5
2EC
330
1D
100
AcDbEntity
  8
0
  6
Continuous
 62
     1
380
     2
100
AcDbLine
 10
182.272881391
 20
126.927118619
 30
0.0
 11
182.272881391
 21
127.327118619
 31
0.0
  0
LINE
  5
2ED
330
1D
100
AcDbEntity
  8
0
  6
Continuous
 62
     1
380
     2
100
AcDbLine
 10
182.272881391
 20
127.327118619
 30
0.0
 11
181.397881391
 21
127.327118619
 31
0.0
  0
LINE
  5
2EE
330
1D
100
AcDbEntity
  8
0
  6
Continuous
 62
     1
380
     2
100
AcDbLine
 10
183.772881392
 20
129.827118618
 30
0.0
 11
182.765936948
 21
129.827118619
 31
0.0
  0
LINE
  5
2EF
330
1D
100
AcDbEntity
  8
0
  6
Continuous
 62
     1
380
     2
100
AcDbLine
 10
182.272881391
 20
125.327118619
 30
0.0
 11
182.272881391
 21
127.327118619
 31
0.0
  0
LINE
  5
2F0
330
1D
100
AcDbEntity
  8
0
  6
Continuous
 62
     1
380
     2
100
AcDbLine
 10
183.772881392
 20
129.827118618
 30
0.0
 11
183.549118335
 21
125.799383609
 31
0.0
  0
LINE
  5
2F1
330
1D
100
AcDbEntity
  8
0
  6
Continuous
 62
     1
380
     2
100
AcDbLine
 10
182.279863245
 20
164.034200065
 30
0.0
 11
182.764382809
 21
129.827118619
 31
0.0
  0
LINE
  5
2F2
330
1D
100
AcDbEntity
  8
0
  6
Continuous
 62
     1
380
     2
100
AcDbLine
 10
159.772881392
 20
129.827118625
 30
0.0
 11
159.996644447
 21
125.799383615
 31
0.0
  0
ARC
  5
2F3
330
1D
100
AcDbEntity
  8
0
  6
Continuous
 62
     1
380
     2
100
AcDbCircle
 10
160.495874624
 20
125.827118625
 30
0.0
 40
0.5
100
AcDbArc
 50
183.17983012
 51
270.000000001
  0
LINE
  5
2F4
330
1D
100
AcDbEntity
  8
0
  6
Continuous
 62
     1
380
     2
100
AcDbLine
 10
161.272881391
 20
126.927118624
 30
0.0
 11
161.272881391
 21
127.327118624
 31
0.0
  0
LINE
  5
2F5
330
1D
100
AcDbEntity
  8
0
  6
Continuous
 62
     1
380
     2
100
AcDbLine
 10
161.272881391
 20
125.327118624
 30
0.0
 11
161.272881391
 21
127.327118624
 31
0.0
  0
LINE
  5
2F6
330
1D
100
AcDbEntity
  8
0
  6
Continuous
 62
     1
380
     2
100
AcDbLine
 10
161.275
 20
125.327118624
 30
0.0
 11
160.495874624
 21
125.327118625
 31
0.0
  0
LINE
  5
2F7
330
1D
100
AcDbEntity
  8
0
  6
Continuous
 62
     1
380
     2
100
AcDbLine
 10
161.272881391
 20
127.327118624
 30
0.0
 11
181.822881391
 21
127.32711862
 31
0.0
  0
ARC
  5
2F8
330
1D
100
AcDbEntity
  8
0
  6
Continuous
 62
     1
380
     2
100
AcDbCircle
 10
171.775
 20
235.35
 30
0.0
 40
110.5
100
AcDbArc
 50
264.547378012
 51
275.452621988
  0
LINE
  5
2F9
330
1D
100
AcDbEntity
  8
0
  6
Continuous
 62
     1
380
     2
100
AcDbLine
 10
171.772881392
 20
130.127118622
 30
0.0
 11
166.772881392
 21
130.127118623
 31
0.0
  0
LINE
  5
2FA
330
1D
100
AcDbEntity
  8
0
  6
Continuous
 62
     1
380
     2
100
AcDbLine
 10
166.772881392
 20
130.127118623
 30
0.0
 11
166.772881396
 21
147.327118623
 31
0.0
  0
ARC
  5
2FB
330
1D
100
AcDbEntity
  8
0
  6
Continuous
 62
     1
380
     2
100
AcDbCircle
 10
166.272881396
 20
147.327118623
 30
0.0
 40
0.5
100
AcDbArc
 50
0.0
 51
180.0
  0
LINE
  5
2FC
330
1D
100
AcDbEntity
  8
0
  6
Continuous
 62
     1
380
     2
100
AcDbLine
 10
166.772881392
 20
130.377118623
 30
0.0
 11
171.772881392
 21
130.377118622
 31
0.0
  0
LINE
  5
2FD
330
1D
100
AcDbEntity
  8
0
  6
Continuous
 62
     1
380
     2
100
AcDbLine
 10
171.772881392
 20
130.877118622
 30
0.0
 11
166.772881392
 21
130.877118623
 31
0.0
  0
LINE
  5
2FE
330
1D
100
AcDbEntity
  8
0
  6
Continuous
 62
     1
380
     2
100
AcDbLine
 10
166.772881392
 20
131.377118623
 30
0.0
 11
171.772881392
 21
131.377118622
 31
0.0
  0
LINE
  5
2FF
330
1D
100
AcDbEntity
  8
0
  6
Continuous
 62
     1
380
     2
100
AcDbLine
 10
171.772881392
 20
131.877118622
 30
0.0
 11
166.772881392
 21
131.877118623
 31
0.0
  0
LINE
  5
300
330
1D
100
AcDbEntity
  8
0
  6
Continuous
 62
     1
380
     2
100
AcDbLine
 10
166.772881392
 20
132.377118623
 30
0.0
 11
171.772881392
 21
132.377118622
 31
0.0
  0
LINE
  5
301
330
1D
100
AcDbEntity
  8
0
  6
Continuous
 62
     1
380
     2
100
AcDbLine
 10
171.772881393
 20
132.877118622
 30
0.0
 11
166.772881393
 21
132.877118623
 31
0.0
  0
LINE
  5
302
330
1D
100
AcDbEntity
  8
0
  6
Continuous
 62
     1
380
     2
100
AcDbLine
 10
166.772881393
 20
133.377118623
 30
0.0
 11
171.772881393
 21
133.377118622
 31
0.0
  0
LINE
  5
303
330
1D
100
AcDbEntity
  8
0
  6
Continuous
 62
     1
380
     2
100
AcDbLine
 10
171.772881393
 20
133.877118622
 30
0.0
 11
166.772881393
 21
133.877118623
 31
0.0
  0
LINE
  5
304
330
1D
100
AcDbEntity
  8
0
  6
Continuous
 62
     1
380
     2
100
AcDbLine
 10
166.772881393
 20
134.377118623
 30
0.0
 11
171.772881393
 21
134.377118622
 31
0.0
  0
LINE
  5
305
330
1D
100
AcDbEntity
  8
0
  6
Continuous
 62
     1
380
     2
100
AcDbLine
 10
171.772881393
 20
134.877118622
 30
0.0
 11
166.772881393
 21
134.877118623
 31
0.0
  0
LINE
  5
306
330
1D
100
AcDbEntity
  8
0
  6
Continuous
 62
     1
380
     2
100
AcDbLine
 10
165.772881392
 20
129.577118623
 30
0.0
 11
165.772881392
 21
129.827118623
 31
0.0
  0
LINE
  5
307
330
1D
100
AcDbEntity
  8
0
  6
Continuous
 62
     1
380
     2
100
AcDbLine
 10
165.772881396
 20
147.327118623
 30
0.0
 11
165.772881392
 21
129.827118623
 31
0.0
  0
LINE
  5
308
330
1D
100
AcDbEntity
  8
0
  6
Continuous
 62
     1
380
     2
100
AcDbLine
 10
159.772881392
 20
129.827118625
 30
0.0
 11
165.772881392
 21
129.827118623
 31
0.0
  0
LINE
  5
309
330
1D
100
AcDbEntity
  8
0
  6
Continuous
 62
     1
380
     2
100
AcDbLine
 10
171.772881392
 20
130.127118622
 30
0.0
 11
176.772881392
 21
130.12711862
 31
0.0
  0
LINE
  5
30A
330
1D
100
AcDbEntity
  8
0
  6
Continuous
 62
     1
380
     2
100
AcDbLine
 10
176.772881392
 20
130.12711862
 30
0.0
 11
176.7728813959999
 21
147.32711862
 31
0.0
  0
ARC
  5
30B
330
1D
100
AcDbEntity
  8
0
  6
Continuous
 62
     1
380
     2
100
AcDbCircle
 10
177.2728813959999
 20
147.32711862
 30
0.0
 40
0.5
100
AcDbArc
 50
0.0
 51
180.0
  0
LINE
  5
30C
330
1D
100
AcDbEntity
  8
0
  6
Continuous
 62
     1
380
     2
100
AcDbLine
 10
176.772881392
 20
130.37711862
 30
0.0
 11
171.772881392
 21
130.377118622
 31
0.0
  0
LINE
  5
30D
330
1D
100
AcDbEntity
  8
0
  6
Continuous
 62
     1
380
     2
100
AcDbLine
 10
171.772881392
 20
130.877118622
 30
0.0
 11
176.772881392
 21
130.87711862
 31
0.0
  0
LINE
  5
30E
330
1D
100
AcDbEntity
  8
0
  6
Continuous
 62
     1
380
     2
100
AcDbLine
 10
176.772881392
 20
131.37711862
 30
0.0
 11
171.772881392
 21
131.377118622
 31
0.0
  0
LINE
  5
30F
330
1D
100
AcDbEntity
  8
0
  6
Continuous
 62
     1
380
     2
100
AcDbLine
 10
171.772881392
 20
131.877118622
 30
0.0
 11
176.772881392
 21
131.87711862
 31
0.0
  0
LINE
  5
310
330
1D
100
AcDbEntity
  8
0
  6
Continuous
 62
     1
380
     2
100
AcDbLine
 10
176.772881392
 20
132.37711862
 30
0.0
 11
171.772881392
 21
132.377118622
 31
0.0
  0
LINE
  5
311
330
1D
100
AcDbEntity
  8
0
  6
Continuous
 62
     1
380
     2
100
AcDbLine
 10
171.772881393
 20
132.877118622
 30
0.0
 11
176.772881393
 21
132.87711862
 31
0.0
  0
LINE
  5
312
330
1D
100
AcDbEntity
  8
0
  6
Continuous
 62
     1
380
     2
100
AcDbLine
 10
176.772881393
 20
133.37711862
 30
0.0
 11
171.772881393
 21
133.377118622
 31
0.0
  0
LINE
  5
313
330
1D
100
AcDbEntity
  8
0
  6
Continuous
 62
     1
380
     2
100
AcDbLine
 10
171.772881393
 20
133.877118622
 30
0.0
 11
176.772881393
 21
133.87711862
 31
0.0
  0
LINE
  5
314
330
1D
100
AcDbEntity
  8
0
  6
Continuous
 62
     1
380
     2
100
AcDbLine
 10
176.772881393
 20
134.37711862
 30
0.0
 11
171.772881393
 21
134.377118622
 31
0.0
  0
LINE
  5
315
330
1D
100
AcDbEntity
  8
0
  6
Continuous
 62
     1
380
     2
100
AcDbLine
 10
171.772881393
 20
134.877118622
 30
0.0
 11
176.772881393
 21
134.87711862
 31
0.0
  0
LINE
  5
316
330
1D
100
AcDbEntity
  8
0
  6
Continuous
 62
     1
380
     2
100
AcDbLine
 10
177.772881396
 20
147.32711862
 30
0.0
 11
177.772881392
 21
129.577118621
 31
0.0
  0
LINE
  5
317
330
1D
100
AcDbEntity
  8
0
  6
Continuous
 62
     1
380
     2
100
AcDbLine
 10
177.772881392
 20
129.82711862
 30
0.0
 11
182.765936948
 21
129.827118619
 31
0.0
  0
LINE
  5
318
330
1D
100
AcDbEntity
  8
0
  6
Continuous
 62
     1
380
     2
100
AcDbLine
 10
165.772881392
 20
129.577118623
 30
0.0
 11
177.772881392
 21
129.577118621
 31
0.0
  0
ARC
  5
319
330
1D
100
AcDbEntity
  8
0
  6
Continuous
 62
     1
380
     2
100
AcDbCircle
 10
161.65678424
 20
156.327118624
 30
0.0
 40
0.5
100
AcDbArc
 50
90.0
 51
179.188499314
  0
LINE
  5
31A
330
1D
100
AcDbEntity
  8
0
  6
Continuous
 62
     1
380
     2
100
AcDbLine
 10
161.15683439
 20
156.334200067
 30
0.0
 11
160.781379976
 21
129.827118623
 31
0.0
  0
LINE
  5
31B
330
1D
100
AcDbEntity
  8
0
  6
Continuous
 62
     1
380
     2
100
AcDbLine
 10
161.65678424
 20
156.827118624
 30
0.0
 11
165.072881401
 21
156.827118624
 31
0.0
  0
ARC
  5
31C
330
1D
100
AcDbEntity
  8
0
  6
Continuous
 62
     1
380
     2
100
AcDbCircle
 10
165.947581571
 20
164.027118624
 30
0.0
 40
0.5
100
AcDbArc
 50
90.0
 51
177.026268918
  0
LINE
  5
31D
330
1D
100
AcDbEntity
  8
0
  6
Continuous
 62
     1
380
     2
100
AcDbLine
 10
165.947581571
 20
164.527118624
 30
0.0
 11
181.779913394
 21
164.527118622
 31
0.0
  0
LINE
  5
31E
330
1D
100
AcDbEntity
  8
0
  6
Continuous
 62
     1
380
     2
100
AcDbLine
 10
165.448254858
 20
164.053057674
 30
0.0
 11
165.072881401
 21
156.827118624
 31
0.0
  0
LINE
  5
31F
330
1D
100
AcDbEntity
  8
0
  6
Continuous
 62
     1
380
     2
100
AcDbLine
 10
94.727118652
 20
202.799999974
 30
0.0
 11
115.977118652
 21
202.799999969
 31
0.0
  0
ARC
  5
320
330
1D
100
AcDbEntity
  8
0
  6
Continuous
 62
     1
380
     2
100
AcDbCircle
 10
91.727118652
 20
203.299999975
 30
0.0
 40
0.5
100
AcDbArc
 50
180.0
 51
270.0
  0
ARC
  5
321
330
1D
100
AcDbEntity
  8
0
  6
Continuous
 62
     1
380
     2
100
AcDbCircle
 10
91.02711865299999
 20
202.499999974
 30
0.0
 40
0.3
100
AcDbArc
 50
180.0
 51
270.0
  0
ARC
  5
322
330
1D
100
AcDbEntity
  8
0
  6
Continuous
 62
     1
380
     2
100
AcDbCircle
 10
89.72711865299999
 20
201.799999974
 30
0.0
 40
0.5
100
AcDbArc
 50
180.0
 51
270.0
  0
LINE
  5
323
330
1D
100
AcDbEntity
  8
0
  6
Continuous
 62
     1
380
     2
100
AcDbLine
 10
88.12711866299999
 20
208.299999972
 30
0.0
 11
88.12711866299999
 21
213.299999972
 31
0.0
  0
LINE
  5
324
330
1D
100
AcDbEntity
  8
0
  6
Continuous
 62
     1
380
     2
100
AcDbLine
 10
88.12711866299999
 20
208.299999972
 30
0.0
 11
90.627118662
 21
208.299999971
 31
0.0
  0
LINE
  5
325
330
1D
100
AcDbEntity
  8
0
  6
Continuous
 62
     1
380
     2
100
AcDbLine
 10
91.22711865700001
 20
223.299999975
 30
0.0
 11
91.22711865299999
 21
207.499999971
 31
0.0
  0
ARC
  5
326
330
1D
100
AcDbEntity
  8
0
  6
Continuous
 62
     1
380
     2
100
AcDbCircle
 10
91.727118653
 20
207.499999971
 30
0.0
 40
0.5
100
AcDbArc
 50
180.000000001
 51
270.0
  0
LINE
  5
327
330
1D
100
AcDbEntity
  8
0
  6
Continuous
 62
     1
380
     2
100
AcDbLine
 10
89.227118654
 20
208.199999974
 30
0.0
 11
89.227118653
 21
201.799999974
 31
0.0
  0
LINE
  5
328
330
1D
100
AcDbEntity
  8
0
  6
Continuous
 62
     1
380
     2
100
AcDbLine
 10
91.22711865299999
 20
207.447118609
 30
0.0
 11
91.22711865200001
 21
203.299999975
 31
0.0
  0
CIRCLE
  5
329
330
1D
100
AcDbEntity
  8
0
  6
Continuous
 62
     1
380
     2
100
AcDbCircle
 10
97.227118655
 20
214.099999973
 30
0.0
 40
2.25
  0
LINE
  5
32A
330
1D
100
AcDbEntity
  8
0
  6
Continuous
 62
     1
380
     2
100
AcDbLine
 10
109.727118655
 20
211.699999969
 30
0.0
 11
107.227118655
 21
211.69999997
 31
0.0
  0
LINE
  5
32B
330
1D
100
AcDbEntity
  8
0
  6
Continuous
 62
     1
380
     2
100
AcDbLine
 10
109.727118655
 20
211.699999969
 30
0.0
 11
109.727118655
 21
210.699999969
 31
0.0
  0
LINE
  5
32C
330
1D
100
AcDbEntity
  8
0
  6
Continuous
 62
     1
380
     2
100
AcDbLine
 10
110.727118655
 20
210.699999969
 30
0.0
 11
110.727118655
 21
211.699999969
 31
0.0
  0
LINE
  5
32D
330
1D
100
AcDbEntity
  8
0
  6
Continuous
 62
     1
380
     2
100
AcDbLine
 10
106.727118655
 20
210.69999997
 30
0.0
 11
109.727118655
 21
210.699999969
 31
0.0
  0
ARC
  5
32E
330
1D
100
AcDbEntity
  8
0
  6
Continuous
 62
     1
380
     2
100
AcDbCircle
 10
106.727118655
 20
211.19999997
 30
0.0
 40
0.5
100
AcDbArc
 50
180.000000001
 51
270.0
  0
LINE
  5
32F
330
1D
100
AcDbEntity
  8
0
  6
Continuous
 62
     1
380
     2
100
AcDbLine
 10
129.727118655
 20
211.699999967
 30
0.0
 11
129.727118654
 21
210.699999967
 31
0.0
  0
LINE
  5
330
330
1D
100
AcDbEntity
  8
0
  6
Continuous
 62
     1
380
     2
100
AcDbLine
 10
133.227118655
 20
211.699999967
 30
0.0
 11
130.727118655
 21
211.699999967
 31
0.0
  0
LINE
  5
331
330
1D
100
AcDbEntity
  8
0
  6
Continuous
 62
     1
380
     2
100
AcDbLine
 10
130.727118654
 20
210.699999967
 30
0.0
 11
130.727118655
 21
211.699999967
 31
0.0
  0
LINE
  5
332
330
1D
100
AcDbEntity
  8
0
  6
Continuous
 62
     1
380
     2
100
AcDbLine
 10
130.727118654
 20
210.699999967
 30
0.0
 11
133.727118654
 21
210.699999967
 31
0.0
  0
ARC
  5
333
330
1D
100
AcDbEntity
  8
0
  6
Continuous
 62
     1
380
     2
100
AcDbCircle
 10
133.727118654
 20
211.199999967
 30
0.0
 40
0.5
100
AcDbArc
 50
270.0
 51
0.0
  0
LINE
  5
334
330
1D
100
AcDbEntity
  8
0
  6
Continuous
 62
     1
380
     2
100
AcDbLine
 10
129.727118655
 20
211.699999967
 30
0.0
 11
110.727118655
 21
211.699999969
 31
0.0
  0
LINE
  5
335
330
1D
100
AcDbEntity
  8
0
  6
Continuous
 62
     1
380
     2
100
AcDbLine
 10
110.727118655
 20
210.699999969
 30
0.0
 11
129.727118654
 21
210.699999967
 31
0.0
  0
ARC
  5
336
330
1D
100
AcDbEntity
  8
0
  6
Continuous
 62
     1
380
     2
100
AcDbCircle
 10
134.727118652
 20
203.299999963
 30
0.0
 40
0.5
100
AcDbArc
 50
270.0
 51
0.0
  0
ARC
  5
337
330
1D
100
AcDbEntity
  8
0
  6
Continuous
 62
     1
380
     2
100
AcDbCircle
 10
135.427118653
 20
202.499999964
 30
0.0
 40
0.3
100
AcDbArc
 50
270.0
 51
0.0
  0
ARC
  5
338
330
1D
100
AcDbEntity
  8
0
  6
Continuous
 62
     1
380
     2
100
AcDbCircle
 10
136.727118653
 20
201.799999964
 30
0.0
 40
0.5
100
AcDbArc
 50
270.0
 51
0.0
  0
LINE
  5
339
330
1D
100
AcDbEntity
  8
0
  6
Continuous
 62
     1
380
     2
100
AcDbLine
 10
138.327118646
 20
208.299999962
 30
0.0
 11
138.327118647
 21
213.299999962
 31
0.0
  0
LINE
  5
33A
330
1D
100
AcDbEntity
  8
0
  6
Continuous
 62
     1
380
     2
100
AcDbLine
 10
135.227118653
 20
207.499999967
 30
0.0
 11
135.227118654
 21
209.099999967
 31
0.0
  0
LINE
  5
33B
330
1D
100
AcDbEntity
  8
0
  6
Continuous
 62
     1
380
     2
100
AcDbLine
 10
137.227118653
 20
201.799999964
 30
0.0
 11
137.227118654
 21
206.499999966
 31
0.0
  0
LINE
  5
33C
330
1D
100
AcDbEntity
  8
0
  6
Continuous
 62
     1
380
     2
100
AcDbLine
 10
138.327118646
 20
208.299999962
 30
0.0
 11
135.73
 21
208.299999963
 31
0.0
  0
LINE
  5
33D
330
1D
100
AcDbEntity
  8
0
  6
Continuous
 62
     1
380
     2
100
AcDbLine
 10
137.227118654
 20
206.4
 30
0.0
 11
137.227118654
 21
208.199999964
 31
0.0
  0
LINE
  5
33E
330
1D
100
AcDbEntity
  8
0
  6
Continuous
 62
     1
380
     2
100
AcDbLine
 10
91.727118652
 20
202.799999975
 30
0.0
 11
134.727118652
 21
202.799999963
 31
0.0
  0
LINE
  5
33F
330
1D
100
AcDbEntity
  8
0
  6
Continuous
 62
     1
380
     2
100
AcDbLine
 10
91.02711865299999
 20
202.199999974
 30
0.0
 11
135.427118653
 21
202.199999964
 31
0.0
  0
LINE
  5
340
330
1D
100
AcDbEntity
  8
0
  6
Continuous
 62
     1
380
     2
100
AcDbLine
 10
89.727118652
 20
201.299999974
 30
0.0
 11
136.727118652
 21
201.299999964
 31
0.0
  0
LINE
  5
341
330
1D
100
AcDbEntity
  8
0
  6
Continuous
 62
     1
380
     2
100
AcDbLine
 10
135.227118652
 20
203.299999963
 30
0.0
 11
135.227118653
 21
207.532118605
 31
0.0
  0
ARC
  5
342
330
1D
100
AcDbEntity
  8
0
  6
Continuous
 62
     1
380
     2
100
AcDbCircle
 10
134.727118653
 20
207.499999967
 30
0.0
 40
0.5
100
AcDbArc
 50
270.0
 51
0.0
  0
LINE
  5
343
330
1D
100
AcDbEntity
  8
0
  6
Continuous
 62
     1
380
     2
100
AcDbLine
 10
135.727118653
 20
202.499999964
 30
0.0
 11
135.727118654
 21
208.299999967
 31
0.0
  0
LINE
  5
344
330
1D
100
AcDbEntity
  8
0
  6
Continuous
 62
     1
380
     2
100
AcDbLine
 10
91.727118653
 20
206.999999971
 30
0.0
 11
134.727118653
 21
206.999999967
 31
0.0
  0
LINE
  5
345
330
1D
100
AcDbEntity
  8
0
  6
Continuous
 62
     1
380
     2
100
AcDbLine
 10
138.327118648
 20
218.299999962
 30
0.0
 11
138.327118647
 21
213.299999962
 31
0.0
  0
LINE
  5
346
330
1D
100
AcDbEntity
  8
0
  6
Continuous
 62
     1
380
     2
100
AcDbLine
 10
138.327118648
 20
218.299999962
 30
0.0
 11
135.827118648
 21
218.299999963
 31
0.0
  0
CIRCLE
  5
347
330
1D
100
AcDbEntity
  8
0
  6
Continuous
 62
     1
380
     2
100
AcDbCircle
 10
130.727118655
 20
215.699999964
 30
0.0
 40
2.0
  0
CIRCLE
  5
348
330
1D
100
AcDbEntity
  8
0
  6
Continuous
 62
     1
380
     2
100
AcDbCircle
 10
125.727118655
 20
215.699999966
 30
0.0
 40
2.0
  0
CIRCLE
  5
349
330
1D
100
AcDbEntity
  8
0
  6
Continuous
 62
     1
380
     2
100
AcDbCircle
 10
120.727118655
 20
215.699999967
 30
0.0
 40
2.0
  0
CIRCLE
  5
34A
330
1D
100
AcDbEntity
  8
0
  6
Continuous
 62
     1
380
     2
100
AcDbCircle
 10
115.727118655
 20
215.699999968
 30
0.0
 40
2.0
  0
CIRCLE
  5
34B
330
1D
100
AcDbEntity
  8
0
  6
Continuous
 62
     1
380
     2
100
AcDbCircle
 10
110.727118655
 20
215.69999997
 30
0.0
 40
2.0
  0
LINE
  5
34C
330
1D
100
AcDbEntity
  8
0
  6
Continuous
 62
     1
380
     2
100
AcDbLine
 10
118.727118656
 20
221.799999968
 30
0.0
 11
118.727118656
 21
222.799999968
 31
0.0
  0
LINE
  5
34D
330
1D
100
AcDbEntity
  8
0
  6
Continuous
 62
     1
380
     2
100
AcDbLine
 10
122.727118656
 20
222.799999968
 30
0.0
 11
122.727118656
 21
221.799999968
 31
0.0
  0
LINE
  5
34E
330
1D
100
AcDbEntity
  8
0
  6
Continuous
 62
     1
380
     2
100
AcDbLine
 10
118.727118656
 20
222.799999968
 30
0.0
 11
122.727118656
 21
222.799999968
 31
0.0
  0
LINE
  5
34F
330
1D
100
AcDbEntity
  8
0
  6
Continuous
 62
     1
380
     2
100
AcDbLine
 10
122.727118656
 20
221.799999968
 30
0.0
 11
118.727118656
 21
221.799999968
 31
0.0
  0
ARC
  5
350
330
1D
100
AcDbEntity
  8
0
  6
Continuous
 62
     1
380
     2
100
AcDbCircle
 10
133.727118656
 20
222.299999967
 30
0.0
 40
0.5
100
AcDbArc
 50
0.0
 51
90.0
  0
LINE
  5
351
330
1D
100
AcDbEntity
  8
0
  6
Continuous
 62
     1
380
     2
100
AcDbLine
 10
133.227118656
 20
221.799999967
 30
0.0
 11
131.727118656
 21
221.799999967
 31
0.0
  0
LINE
  5
352
330
1D
100
AcDbEntity
  8
0
  6
Continuous
 62
     1
380
     2
100
AcDbLine
 10
131.727118656
 20
222.799999967
 30
0.0
 11
133.727118656
 21
222.799999967
 31
0.0
  0
LINE
  5
353
330
1D
100
AcDbEntity
  8
0
  6
Continuous
 62
     1
380
     2
100
AcDbLine
 10
131.727118656
 20
221.799999967
 30
0.0
 11
131.727118656
 21
222.799999967
 31
0.0
  0
LINE
  5
354
330
1D
100
AcDbEntity
  8
0
  6
Continuous
 62
     1
380
     2
100
AcDbLine
 10
133.227118656
 20
221.799999967
 30
0.0
 11
133.227118655
 21
211.699999967
 31
0.0
  0
LINE
  5
355
330
1D
100
AcDbEntity
  8
0
  6
Continuous
 62
     1
380
     2
100
AcDbLine
 10
134.227118654
 20
211.199999967
 30
0.0
 11
134.227118656
 21
222.299999967
 31
0.0
  0
ARC
  5
356
330
1D
100
AcDbEntity
  8
0
  6
Continuous
 62
     1
380
     2
100
AcDbCircle
 10
134.727118657
 20
223.299999963
 30
0.0
 40
0.5
100
AcDbArc
 50
0.0
 51
90.0
  0
ARC
  5
357
330
1D
100
AcDbEntity
  8
0
  6
Continuous
 62
     1
380
     2
100
AcDbCircle
 10
135.427118658
 20
224.099999964
 30
0.0
 40
0.3
100
AcDbArc
 50
0.0
 51
90.0
  0
ARC
  5
358
330
1D
100
AcDbEntity
  8
0
  6
Continuous
 62
     1
380
     2
100
AcDbCircle
 10
136.727118658
 20
224.799999964
 30
0.0
 40
0.5
100
AcDbArc
 50
0.0
 51
90.0
  0
LINE
  5
359
330
1D
100
AcDbEntity
  8
0
  6
Continuous
 62
     1
380
     2
100
AcDbLine
 10
135.227118654
 20
209.0
 30
0.0
 11
135.227118657
 21
223.299999963
 31
0.0
  0
LINE
  5
35A
330
1D
100
AcDbEntity
  8
0
  6
Continuous
 62
     1
380
     2
100
AcDbLine
 10
135.727118654
 20
208.1
 30
0.0
 11
135.727118658
 21
224.099999964
 31
0.0
  0
LINE
  5
35B
330
1D
100
AcDbEntity
  8
0
  6
Continuous
 62
     1
380
     2
100
AcDbLine
 10
137.227118656
 20
218.299999963
 30
0.0
 11
137.227118658
 21
224.799999964
 31
0.0
  0
ARC
  5
35C
330
1D
100
AcDbEntity
  8
0
  6
Continuous
 62
     1
380
     2
100
AcDbCircle
 10
106.727118656
 20
222.29999997
 30
0.0
 40
0.5
100
AcDbArc
 50
90.0
 51
180.000000001
  0
LINE
  5
35D
330
1D
100
AcDbEntity
  8
0
  6
Continuous
 62
     1
380
     2
100
AcDbLine
 10
106.727118656
 20
222.79999997
 30
0.0
 11
108.727118656
 21
222.799999969
 31
0.0
  0
LINE
  5
35E
330
1D
100
AcDbEntity
  8
0
  6
Continuous
 62
     1
380
     2
100
AcDbLine
 10
108.727118656
 20
221.799999969
 30
0.0
 11
108.727118656
 21
222.799999969
 31
0.0
  0
LINE
  5
35F
330
1D
100
AcDbEntity
  8
0
  6
Continuous
 62
     1
380
     2
100
AcDbLine
 10
108.727118656
 20
221.799999969
 30
0.0
 11
107.227118656
 21
221.79999997
 31
0.0
  0
LINE
  5
360
330
1D
100
AcDbEntity
  8
0
  6
Continuous
 62
     1
380
     2
100
AcDbLine
 10
107.227118656
 20
221.79999997
 30
0.0
 11
107.227118655
 21
211.69999997
 31
0.0
  0
LINE
  5
361
330
1D
100
AcDbEntity
  8
0
  6
Continuous
 62
     1
380
     2
100
AcDbLine
 10
106.227118655
 20
211.19999997
 30
0.0
 11
106.227118656
 21
222.29999997
 31
0.0
  0
ARC
  5
362
330
1D
100
AcDbEntity
  8
0
  6
Continuous
 62
     1
380
     2
100
AcDbCircle
 10
91.727118657
 20
223.299999975
 30
0.0
 40
0.5
100
AcDbArc
 50
90.0
 51
180.0
  0
ARC
  5
363
330
1D
100
AcDbEntity
  8
0
  6
Continuous
 62
     1
380
     2
100
AcDbCircle
 10
91.02711865799999
 20
224.099999974
 30
0.0
 40
0.3
100
AcDbArc
 50
90.0
 51
180.0
  0
ARC
  5
364
330
1D
100
AcDbEntity
  8
0
  6
Continuous
 62
     1
380
     2
100
AcDbCircle
 10
89.72711865799999
 20
224.799999974
 30
0.0
 40
0.5
100
AcDbArc
 50
90.0
 51
180.0
  0
LINE
  5
365
330
1D
100
AcDbEntity
  8
0
  6
Continuous
 62
     1
380
     2
100
AcDbLine
 10
90.727118658
 20
224.099999974
 30
0.0
 11
90.72711865299998
 21
202.499999974
 31
0.0
  0
LINE
  5
366
330
1D
100
AcDbEntity
  8
0
  6
Continuous
 62
     1
380
     2
100
AcDbLine
 10
134.727118657
 20
223.799999963
 30
0.0
 11
91.727118657
 21
223.799999975
 31
0.0
  0
LINE
  5
367
330
1D
100
AcDbEntity
  8
0
  6
Continuous
 62
     1
380
     2
100
AcDbLine
 10
135.427118658
 20
224.399999964
 30
0.0
 11
91.02711865799999
 21
224.399999974
 31
0.0
  0
LINE
  5
368
330
1D
100
AcDbEntity
  8
0
  6
Continuous
 62
     1
380
     2
100
AcDbLine
 10
136.727118658
 20
225.299999964
 30
0.0
 11
89.72711865799999
 21
225.299999974
 31
0.0
  0
LINE
  5
369
330
1D
100
AcDbEntity
  8
0
  6
Continuous
 62
     1
380
     2
100
AcDbLine
 10
89.227118658
 20
224.799999974
 30
0.0
 11
89.227118656
 21
218.299999971
 31
0.0
  0
LINE
  5
36A
330
1D
100
AcDbEntity
  8
0
  6
Continuous
 62
     1
380
     2
100
AcDbLine
 10
88.12711866399999
 20
218.299999972
 30
0.0
 11
90.727118656
 21
218.299999971
 31
0.0
  0
LINE
  5
36B
330
1D
100
AcDbEntity
  8
0
  6
Continuous
 62
     1
380
     2
100
AcDbLine
 10
88.12711866399999
 20
218.299999972
 30
0.0
 11
88.12711866299999
 21
213.299999972
 31
0.0
  0
LINE
  5
36C
330
1D
100
AcDbEntity
  8
0
  6
Continuous
 62
     3
380
     2
100
AcDbLine
 10
108.727118656
 20
221.899999969
 30
0.0
 11
118.727118656
 21
221.899999968
 31
0.0
  0
LINE
  5
36D
330
1D
100
AcDbEntity
  8
0
  6
Continuous
 62
     3
380
     2
100
AcDbLine
 10
108.727118656
 20
222.299999969
 30
0.0
 11
118.727118656
 21
222.299999969
 31
0.0
  0
LINE
  5
36E
330
1D
100
AcDbEntity
  8
0
  6
Continuous
 62
     3
380
     2
100
AcDbLine
 10
118.727118656
 20
222.699999968
 30
0.0
 11
108.727118656
 21
222.699999969
 31
0.0
  0
LINE
  5
36F
330
1D
100
AcDbEntity
  8
0
  6
Continuous
 62
     3
380
     2
100
AcDbLine
 10
131.727118656
 20
222.699999967
 30
0.0
 11
122.727118656
 21
222.699999968
 31
0.0
  0
LINE
  5
370
330
1D
100
AcDbEntity
  8
0
  6
Continuous
 62
     3
380
     2
100
AcDbLine
 10
122.727118656
 20
221.899999968
 30
0.0
 11
131.727118656
 21
221.899999967
 31
0.0
  0
LINE
  5
371
330
1D
100
AcDbEntity
  8
0
  6
Continuous
 62
     3
380
     2
100
AcDbLine
 10
122.727118656
 20
222.299999968
 30
0.0
 11
131.727118656
 21
222.299999968
 31
0.0
  0
LINE
  5
372
330
1D
100
AcDbEntity
  8
0
  6
Continuous
 62
     3
380
     2
100
AcDbLine
 10
268.0
 20
181.87
 30
0.0
 11
268.51763809
 21
183.801851653
 31
0.0
  0
LINE
  5
373
330
1D
100
AcDbEntity
  8
0
  6
Continuous
 62
     3
380
     2
100
AcDbLine
 10
268.0
 20
181.87
 30
0.0
 11
267.48236191
 21
183.801851653
 31
0.0
  0
LINE
  5
374
330
1D
100
AcDbEntity
  8
0
  6
Continuous
 62
     3
380
     2
100
AcDbLine
 10
268.0
 20
181.87
 30
0.0
 11
268.0
 21
216.87
 31
0.0
  0
LINE
  5
375
330
1D
100
AcDbEntity
  8
0
  6
Continuous
 62
     3
380
     2
100
AcDbLine
 10
268.0
 20
216.87
 30
0.0
 11
267.48236191
 21
214.938148347
 31
0.0
  0
LINE
  5
376
330
1D
100
AcDbEntity
  8
0
  6
Continuous
 62
     3
380
     2
100
AcDbLine
 10
268.0
 20
216.87
 30
0.0
 11
268.51763809
 21
214.938148347
 31
0.0
  0
TEXT
  5
377
330
1D
100
AcDbEntity
  8
0
  6
Continuous
 62
     3
380
     2
100
AcDbText
 10
267.0
 20
195.22
 30
0.3
 40
2.5
  1
ＭＩＮ　３５
 50
90.0
 41
0.8
  7
KANJI0
100
AcDbText
  0
LINE
  5
378
330
1D
100
AcDbEntity
  8
0
  6
Continuous
 62
     3
380
     2
100
AcDbLine
 10
279.6
 20
227.87
 30
0.0
 11
274.0
 21
227.87
 31
0.0
  0
LINE
  5
379
330
1D
100
AcDbEntity
  8
0
  6
Continuous
 62
     3
380
     2
100
AcDbLine
 10
275.0
 20
227.87
 30
0.0
 11
274.48236191
 21
225.938148347
 31
0.0
  0
LINE
  5
37A
330
1D
100
AcDbEntity
  8
0
  6
Continuous
 62
     3
380
     2
100
AcDbLine
 10
275.0
 20
227.87
 30
0.0
 11
275.51763809
 21
225.938148347
 31
0.0
  0
LINE
  5
37B
330
1D
100
AcDbEntity
  8
0
  6
Continuous
 62
     3
380
     2
100
AcDbLine
 10
275.0
 20
227.87
 30
0.0
 11
275.0
 21
205.87
 31
0.0
  0
LINE
  5
37C
330
1D
100
AcDbEntity
  8
0
  6
Continuous
 62
     3
380
     2
100
AcDbLine
 10
275.0
 20
205.87
 30
0.0
 11
275.51763809
 21
207.801851653
 31
0.0
  0
LINE
  5
37D
330
1D
100
AcDbEntity
  8
0
  6
Continuous
 62
     3
380
     2
100
AcDbLine
 10
275.0
 20
205.87
 30
0.0
 11
274.48236191
 21
207.801851653
 31
0.0
  0
LINE
  5
37E
330
1D
100
AcDbEntity
  8
0
  6
Continuous
 62
     3
380
     2
100
AcDbLine
 10
279.6
 20
205.87
 30
0.0
 11
274.0
 21
205.87
 31
0.0
  0
TEXT
  5
37F
330
1D
100
AcDbEntity
  8
0
  6
Continuous
 62
     3
380
     2
100
AcDbText
 10
274.0
 20
212.05
 30
0.3
 40
2.5
  1
２２
 50
90.0
 41
0.8
  7
KANJI0
100
AcDbText
  0
TEXT
  5
380
330
1D
100
AcDbEntity
  8
0
  6
Continuous
 62
     3
380
     2
100
AcDbText
 10
274.0
 20
216.85
 30
0.18
 40
1.5
  1
－０
 50
90.0
 41
0.8
  7
KANJI5
100
AcDbText
  0
TEXT
  5
381
330
1D
100
AcDbEntity
  8
0
  6
Continuous
 62
     3
380
     2
100
AcDbText
 10
272.5
 20
216.85
 30
0.18
 40
1.5
  1
＋０．３
 50
90.0
 41
0.8
  7
KANJI5
100
AcDbText
  0
LINE
  5
382
330
1D
100
AcDbEntity
  8
0
  6
Continuous
 62
     3
380
     2
100
AcDbLine
 10
280.63
 20
228.89
 30
0.0
 11
280.63
 21
233.97
 31
0.0
  0
LINE
  5
383
330
1D
100
AcDbEntity
  8
0
  6
Continuous
 62
     3
380
     2
100
AcDbLine
 10
280.63
 20
232.97
 30
0.0
 11
282.561851653
 21
232.45236191
 31
0.0
  0
LINE
  5
384
330
1D
100
AcDbEntity
  8
0
  6
Continuous
 62
     3
380
     2
100
AcDbLine
 10
280.63
 20
232.97
 30
0.0
 11
282.561851653
 21
233.48763809
 31
0.0
  0
LINE
  5
385
330
1D
100
AcDbEntity
  8
0
  6
Continuous
 62
     3
380
     2
100
AcDbLine
 10
280.63
 20
232.97
 30
0.0
 11
325.62
 21
232.97
 31
0.0
  0
LINE
  5
386
330
1D
100
AcDbEntity
  8
0
  6
Continuous
 62
     3
380
     2
100
AcDbLine
 10
325.62
 20
232.97
 30
0.0
 11
323.688148347
 21
233.48763809
 31
0.0
  0
LINE
  5
387
330
1D
100
AcDbEntity
  8
0
  6
Continuous
 62
     3
380
     2
100
AcDbLine
 10
325.62
 20
232.97
 30
0.0
 11
323.688148347
 21
232.45236191
 31
0.0
  0
LINE
  5
388
330
1D
100
AcDbEntity
  8
0
  6
Continuous
 62
     3
380
     2
100
AcDbLine
 10
325.62
 20
228.89
 30
0.0
 11
325.62
 21
233.97
 31
0.0
  0
TEXT
  5
389
330
1D
100
AcDbEntity
  8
0
  6
Continuous
 62
     3
380
     2
100
AcDbText
 10
298.305
 20
233.97
 30
0.3
 40
2.5
  1
４５
 41
0.8
  7
KANJI0
100
AcDbText
  0
TEXT
  5
38A
330
1D
100
AcDbEntity
  8
0
  6
Continuous
 62
     3
380
     2
100
AcDbText
 10
303.105
 20
233.97
 30
0.18
 40
1.5
  1
－０
 41
0.8
  7
KANJI5
100
AcDbText
  0
TEXT
  5
38B
330
1D
100
AcDbEntity
  8
0
  6
Continuous
 62
     3
380
     2
100
AcDbText
 10
303.105
 20
235.47
 30
0.18
 40
1.5
  1
＋０．６
 41
0.8
  7
KANJI5
100
AcDbText
  0
LINE
  5
38C
330
1D
100
AcDbEntity
  8
0
  6
Continuous
 62
     3
380
     2
100
AcDbLine
 10
368.13
 20
164.01
 30
0.0
 11
366.198148347
 21
164.52763809
 31
0.0
  0
LINE
  5
38D
330
1D
100
AcDbEntity
  8
0
  6
Continuous
 62
     3
380
     2
100
AcDbLine
 10
368.13
 20
164.01
 30
0.0
 11
366.198148347
 21
163.49236191
 31
0.0
  0
LINE
  5
38E
330
1D
100
AcDbEntity
  8
0
  6
Continuous
 62
     3
380
     2
100
AcDbLine
 10
368.13
 20
164.01
 30
0.0
 11
303.13
 21
164.01
 31
0.0
  0
LINE
  5
38F
330
1D
100
AcDbEntity
  8
0
  6
Continuous
 62
     3
380
     2
100
AcDbLine
 10
303.13
 20
164.01
 30
0.0
 11
305.061851653
 21
163.49236191
 31
0.0
  0
LINE
  5
390
330
1D
100
AcDbEntity
  8
0
  6
Continuous
 62
     3
380
     2
100
AcDbLine
 10
303.13
 20
164.01
 30
0.0
 11
305.061851653
 21
164.52763809
 31
0.0
  0
TEXT
  5
391
330
1D
100
AcDbEntity
  8
0
  6
Continuous
 62
     3
380
     2
100
AcDbText
 10
330.98
 20
165.01
 30
0.3
 40
2.5
  1
ＭＩＮ　６５
 41
0.8
  7
KANJI0
100
AcDbText
  0
LINE
  5
392
330
1D
100
AcDbEntity
  8
0
  6
LTYPE1
 62
     3
380
     2
100
AcDbLine
 10
276.13
 20
216.87
 30
0.0
 11
394.13
 21
216.87
 31
0.0
  0
LINE
  5
393
330
1D
100
AcDbEntity
  8
0
  6
LTYPE1
 62
     3
380
     2
100
AcDbLine
 10
266.63
 20
216.87
 30
0.0
 11
270.13
 21
216.87
 31
0.0
  0
CIRCLE
  5
394
330
1D
100
AcDbEntity
  8
1
  6
Continuous
 62
     3
380
     2
100
AcDbCircle
 10
277.07417
 20
85.6127
 30
0.0
 40
2.714249999999999
  0
CIRCLE
  5
395
330
1D
100
AcDbEntity
  8
1
  6
Continuous
 62
     3
380
     2
100
AcDbCircle
 10
284.59511
 20
85.6127
 30
0.0
 40
2.714249999999999
  0
CIRCLE
  5
396
330
1D
100
AcDbEntity
  8
1
  6
Continuous
 62
     3
380
     2
100
AcDbCircle
 10
292.11605
 20
85.6127
 30
0.0
 40
2.714249999999999
  0
CIRCLE
  5
397
330
1D
100
AcDbEntity
  8
1
  6
Continuous
 62
     3
380
     2
100
AcDbCircle
 10
299.63699
 20
85.6127
 30
0.0
 40
2.714249999999999
  0
CIRCLE
  5
398
330
1D
100
AcDbEntity
  8
1
  6
Continuous
 62
     3
380
     2
100
AcDbCircle
 10
307.15793
 20
85.6127
 30
0.0
 40
2.714249999999999
  0
TEXT
  5
399
330
1D
100
AcDbEntity
  8
1
  6
Continuous
 62
     3
380
     2
100
AcDbText
 10
274.94225
 20
83.54
 30
0.0
 40
4.934999999999999
  1
１
 41
0.8599999999999999
  7
KANJI2
100
AcDbText
  0
TEXT
  5
39A
330
1D
100
AcDbEntity
  8
1
  6
Continuous
 62
     3
380
     2
100
AcDbText
 10
282.44345
 20
83.24389999999999
 30
0.0
 40
4.934999999999999
  1
２
 41
0.8599999999999999
  7
KANJI2
100
AcDbText
  0
TEXT
  5
39B
330
1D
100
AcDbEntity
  8
1
  6
Continuous
 62
     3
380
     2
100
AcDbText
 10
289.94465
 20
83.24389999999999
 30
0.0
 40
4.934999999999999
  1
３
 41
0.8599999999999999
  7
KANJI2
100
AcDbText
  0
TEXT
  5
39C
330
1D
100
AcDbEntity
  8
1
  6
Continuous
 62
     3
380
     2
100
AcDbText
 10
297.44585
 20
83.24389999999999
 30
0.0
 40
4.934999999999999
  1
４
 41
0.8599999999999999
  7
KANJI2
100
AcDbText
  0
TEXT
  5
39D
330
1D
100
AcDbEntity
  8
1
  6
Continuous
 62
     3
380
     2
100
AcDbText
 10
305.04575
 20
83.24389999999999
 30
0.0
 40
4.934999999999999
  1
５
 41
0.8599999999999999
  7
KANJI2
100
AcDbText
  0
LINE
  5
39E
330
1D
100
AcDbEntity
  8
1
  6
Continuous
 62
     1
380
     2
100
AcDbLine
 10
273.215
 20
90.05419999999999
 30
0.0
 11
273.215
 21
80.67770000000001
 31
0.0
  0
LINE
  5
39F
330
1D
100
AcDbEntity
  8
0
  6
Continuous
 62
     1
380
     2
100
AcDbLine
 10
310.63
 20
90.06999999999999
 30
0.0
 11
310.63
 21
80.67
 31
0.0
  0
LINE
  5
3A0
330
1D
100
AcDbEntity
  8
1
  6
Continuous
 62
     1
380
     2
100
AcDbLine
 10
273.215
 20
80.67770000000001
 30
0.0
 11
310.63
 21
80.67770000000001
 31
0.0
  0
LINE
  5
3A1
330
1D
100
AcDbEntity
  8
1
  6
Continuous
 62
     1
380
     2
100
AcDbLine
 10
310.63
 20
90.05419999999999
 30
0.0
 11
273.215
 21
90.05419999999999
 31
0.0
  0
LINE
  5
3A2
330
1D
100
AcDbEntity
  8
1
  6
Continuous
 62
     3
380
     2
100
AcDbLine
 10
299.8751
 20
94.9892
 30
0.0
 11
299.8751
 21
96.46970000000001
 31
0.0
  0
LINE
  5
3A3
330
1D
100
AcDbEntity
  8
1
  6
Continuous
 62
     3
380
     2
100
AcDbLine
 10
299.8751
 20
96.46970000000001
 30
0.0
 11
307.2776
 21
96.46970000000001
 31
0.0
  0
LINE
  5
3A4
330
1D
100
AcDbEntity
  8
1
  6
Continuous
 62
     3
380
     2
100
AcDbLine
 10
307.2776
 20
96.46970000000001
 30
0.0
 11
307.2776
 21
94.9892
 31
0.0
  0
TEXT
  5
3A5
330
1D
100
AcDbEntity
  8
1
  6
Continuous
 62
     3
380
     2
100
AcDbText
 10
298.592
 20
91.2386
 30
0.0
 40
2.961
  1
０Ｖ
 41
0.375
  7
KANJI3
100
AcDbText
  0
TEXT
  5
3A6
330
1D
100
AcDbEntity
  8
1
  6
Continuous
 62
     3
380
     2
100
AcDbText
 10
297.605
 20
97.1606
 30
0.0
 40
2.961
  1
ＤＣ　ＰＯＷＥＲ
 41
0.533333333
  7
KANJI4
100
AcDbText
  0
TEXT
  5
3A7
330
1D
100
AcDbEntity
  8
1
  6
Continuous
 62
     3
380
     2
100
AcDbText
 10
305.0075
 20
91.2386
 30
0.0
 40
2.961
  1
＋５Ｖ
 41
0.375
  7
KANJI3
100
AcDbText
  0
TEXT
  5
3A8
330
1D
100
AcDbEntity
  8
1
  6
Continuous
 62
     3
380
     2
100
AcDbText
 10
275.563
 20
91.1606
 30
0.0
 40
2.961
  1
ＨＩ
 41
0.533333333
  7
KANJI4
100
AcDbText
  0
TEXT
  5
3A9
330
1D
100
AcDbEntity
  8
1
  6
Continuous
 62
     3
380
     2
100
AcDbText
 10
282.763
 20
91.1606
 30
0.0
 40
2.961
  1
ＬＯ
 41
0.533333333
  7
KANJI4
100
AcDbText
  0
TEXT
  5
3AA
330
1D
100
AcDbEntity
  8
1
  6
Continuous
 62
     3
380
     2
100
AcDbText
 10
288.868
 20
91.2606
 30
0.0
 40
2.961
  1
ＨＯＬＤ
 41
0.533333333
  7
KANJI4
100
AcDbText
  0
LINE
  5
3AB
330
1D
100
AcDbEntity
  8
1
  6
Continuous
 62
     3
380
     2
100
AcDbLine
 10
276.8751
 20
94.9892
 30
0.0
 11
276.8751
 21
96.46970000000001
 31
0.0
  0
LINE
  5
3AC
330
1D
100
AcDbEntity
  8
1
  6
Continuous
 62
     3
380
     2
100
AcDbLine
 10
276.8751
 20
96.46970000000001
 30
0.0
 11
284.2776
 21
96.46970000000001
 31
0.0
  0
LINE
  5
3AD
330
1D
100
AcDbEntity
  8
1
  6
Continuous
 62
     3
380
     2
100
AcDbLine
 10
284.2776
 20
96.46970000000001
 30
0.0
 11
284.2776
 21
94.9892
 31
0.0
  0
TEXT
  5
3AE
330
1D
100
AcDbEntity
  8
1
  6
Continuous
 62
     3
380
     2
100
AcDbText
 10
276.805
 20
97.1606
 30
0.0
 40
2.961
  1
ＩＮＰＵＴ
 41
0.533333333
  7
KANJI4
100
AcDbText
  0
LINE
  5
3AF
330
1D
100
AcDbEntity
  8
0
  6
LTYPE2
 62
     3
380
     2
100
AcDbLine
 10
284.6
 20
82.9
 30
0.0
 11
284.6
 21
81.90000000000001
 31
0.0
  0
LINE
  5
3B0
330
1D
100
AcDbEntity
  8
0
  6
LTYPE2
 62
     3
380
     2
100
AcDbLine
 10
284.6
 20
81.90000000000001
 30
0.0
 11
299.6
 21
81.90000000000001
 31
0.0
  0
LINE
  5
3B1
330
1D
100
AcDbEntity
  8
0
  6
LTYPE2
 62
     3
380
     2
100
AcDbLine
 10
299.6
 20
81.90000000000001
 30
0.0
 11
299.6
 21
82.9
 31
0.0
  0
TEXT
  5
3B2
330
1D
100
AcDbEntity
  8
1
  6
Continuous
 62
     3
380
     2
100
AcDbText
 10
277.3021
 20
134.6894
 30
0.0
 40
4.511999999999999
  1
＜絶縁タイプ＞
 41
0.875
  7
KANJI1
100
AcDbText
  0
TEXT
  5
3B3
330
1D
100
AcDbEntity
  8
1
  6
Continuous
 62
     3
380
     2
100
AcDbText
 10
277.3021
 20
101.4894
 30
0.0
 40
4.511999999999999
  1
＜非絶縁タイプ＞
 41
0.875
  7
KANJI1
100
AcDbText
  0
TEXT
  5
3B4
330
1D
100
AcDbEntity
  8
1
  6
Continuous
 62
     3
380
     2
100
AcDbText
 10
303.1
 20
124.4
 30
0.0
 40
2.961
  1
＋５Ｖ～２４Ｖ
 41
0.75
  7
KANJI6
100
AcDbText
  0
TEXT
  5
3B5
330
1D
100
AcDbEntity
  8
1
  6
Continuous
 62
     3
380
     2
100
AcDbText
 10
265.3
 20
75.5
 30
0.0
 40
2.961
  1
電源０Ｖ－入力ＬＯは内部で接続されています
 41
1.066666667
  7
KANJI7
100
AcDbText
  0
LWPOLYLINE
  5
3B6
330
1D
100
AcDbEntity
  8
0
  6
Continuous
 62
     1
380
     2
100
AcDbPolyline
 90
        3
 70
     0
 43
0.0
 10
122.28
 20
86.07499999999999
 10
122.68
 20
85.575
 10
122.08
 20
85.075
  0
LINE
  5
3BB
330
1D
100
AcDbEntity
  8
0
  6
Continuous
 62
     1
380
     2
100
AcDbLine
 10
122.08
 20
84.975
 30
0.0
 11
122.68
 21
85.47499999999999
 31
0.0
  0
LINE
  5
3BC
330
1D
100
AcDbEntity
  8
0
  6
Continuous
 62
     1
380
     2
100
AcDbLine
 10
122.68
 20
85.47499999999999
 30
0.0
 11
123.08
 21
85.075
 31
0.0
  0
LINE
  5
3BD
330
1D
100
AcDbEntity
  8
0
  6
Continuous
 62
     1
380
     2
100
AcDbLine
 10
121.48
 20
81.47499999999999
 30
0.0
 11
121.88
 21
80.975
 31
0.0
  0
LINE
  5
3BE
330
1D
100
AcDbEntity
  8
0
  6
Continuous
 62
     1
380
     2
100
AcDbLine
 10
121.88
 20
80.975
 30
0.0
 11
121.28
 21
80.47499999999999
 31
0.0
  0
LINE
  5
3BF
330
1D
100
AcDbEntity
  8
0
  6
Continuous
 62
     1
380
     2
100
AcDbLine
 10
122.48
 20
81.47499999999999
 30
0.0
 11
121.93
 21
81.07499999999999
 31
0.0
  0
LINE
  5
3C0
330
1D
100
AcDbEntity
  8
0
  6
Continuous
 62
     1
380
     2
100
AcDbLine
 10
121.93
 20
81.07499999999999
 30
0.0
 11
121.48
 21
81.575
 31
0.0
  0
LINE
  5
3C1
330
1D
100
AcDbEntity
  8
0
  6
Continuous
 62
     1
380
     2
100
AcDbLine
 10
121.28
 20
80.37499999999999
 30
0.0
 11
121.88
 21
80.875
 31
0.0
  0
LINE
  5
3C2
330
1D
100
AcDbEntity
  8
0
  6
Continuous
 62
     1
380
     2
100
AcDbLine
 10
121.88
 20
80.875
 30
0.0
 11
122.28
 21
80.47499999999999
 31
0.0
  0
LINE
  5
3C3
330
1D
100
AcDbEntity
  8
0
  6
Continuous
 62
     1
380
     2
100
AcDbLine
 10
123.08
 20
85.075
 30
0.0
 11
122.48
 21
81.47499999999999
 31
0.0
  0
LINE
  5
3C4
330
1D
100
AcDbEntity
  8
0
  6
Continuous
 62
     1
380
     2
100
AcDbLine
 10
121.48
 20
81.575
 30
0.0
 11
122.08
 21
84.975
 31
0.0
  0
LINE
  5
3C5
330
1D
100
AcDbEntity
  8
0
  6
Continuous
 62
     1
380
     2
100
AcDbLine
 10
120.68
 20
76.875
 30
0.0
 11
121.08
 21
76.375
 31
0.0
  0
LINE
  5
3C6
330
1D
100
AcDbEntity
  8
0
  6
Continuous
 62
     1
380
     2
100
AcDbLine
 10
121.08
 20
76.375
 30
0.0
 11
120.48
 21
75.875
 31
0.0
  0
LINE
  5
3C7
330
1D
100
AcDbEntity
  8
0
  6
Continuous
 62
     1
380
     2
100
AcDbLine
 10
121.68
 20
76.875
 30
0.0
 11
121.13
 21
76.47499999999999
 31
0.0
  0
LINE
  5
3C8
330
1D
100
AcDbEntity
  8
0
  6
Continuous
 62
     1
380
     2
100
AcDbLine
 10
121.13
 20
76.47499999999999
 30
0.0
 11
120.68
 21
76.97499999999999
 31
0.0
  0
CIRCLE
  5
3C9
330
1D
100
AcDbEntity
  8
0
  6
Continuous
 62
     1
380
     2
100
AcDbCircle
 10
123.175
 20
76.375
 30
0.0
 40
0.5
  0
LINE
  5
3CA
330
1D
100
AcDbEntity
  8
0
  6
Continuous
 62
     1
380
     2
100
AcDbLine
 10
122.28
 20
80.47499999999999
 30
0.0
 11
121.68
 21
76.875
 31
0.0
  0
LINE
  5
3CB
330
1D
100
AcDbEntity
  8
0
  6
Continuous
 62
     1
380
     2
100
AcDbLine
 10
120.68
 20
76.97499999999999
 30
0.0
 11
121.28
 21
80.37499999999999
 31
0.0
  0
LINE
  5
3CC
330
1D
100
AcDbEntity
  8
0
  6
Continuous
 62
     1
380
     2
100
AcDbLine
 10
116.93
 20
75.875
 30
0.0
 11
116.48
 21
76.375
 31
0.0
  0
LINE
  5
3CD
330
1D
100
AcDbEntity
  8
0
  6
Continuous
 62
     1
380
     2
100
AcDbLine
 10
116.48
 20
76.375
 30
0.0
 11
117.13
 21
76.875
 31
0.0
  0
LINE
  5
3CE
330
1D
100
AcDbEntity
  8
0
  6
Continuous
 62
     1
380
     2
100
AcDbLine
 10
117.08
 20
76.97499999999999
 30
0.0
 11
116.48
 21
76.47499999999999
 31
0.0
  0
LINE
  5
3CF
330
1D
100
AcDbEntity
  8
0
  6
Continuous
 62
     1
380
     2
100
AcDbLine
 10
116.48
 20
76.47499999999999
 30
0.0
 11
116.03
 21
76.875
 31
0.0
  0
LINE
  5
3D0
330
1D
100
AcDbEntity
  8
0
  6
Continuous
 62
     1
380
     2
100
AcDbLine
 10
120.68
 20
76.875
 30
0.0
 11
117.13
 21
76.875
 31
0.0
  0
LINE
  5
3D1
330
1D
100
AcDbEntity
  8
0
  6
Continuous
 62
     1
380
     2
100
AcDbLine
 10
116.93
 20
75.875
 30
0.0
 11
120.48
 21
75.875
 31
0.0
  0
LINE
  5
3D2
330
1D
100
AcDbEntity
  8
0
  6
Continuous
 62
     1
380
     2
100
AcDbLine
 10
117.73
 20
80.47499999999999
 30
0.0
 11
117.28
 21
80.975
 31
0.0
  0
LINE
  5
3D3
330
1D
100
AcDbEntity
  8
0
  6
Continuous
 62
     1
380
     2
100
AcDbLine
 10
117.28
 20
80.975
 30
0.0
 11
117.93
 21
81.47499999999999
 31
0.0
  0
LINE
  5
3D4
330
1D
100
AcDbEntity
  8
0
  6
Continuous
 62
     1
380
     2
100
AcDbLine
 10
117.68
 20
80.37499999999999
 30
0.0
 11
117.23
 21
80.875
 31
0.0
  0
LINE
  5
3D5
330
1D
100
AcDbEntity
  8
0
  6
Continuous
 62
     1
380
     2
100
AcDbLine
 10
117.23
 20
80.875
 30
0.0
 11
116.68
 21
80.47499999999999
 31
0.0
  0
LINE
  5
3D6
330
1D
100
AcDbEntity
  8
0
  6
Continuous
 62
     1
380
     2
100
AcDbLine
 10
117.88
 20
81.575
 30
0.0
 11
117.28
 21
81.07499999999999
 31
0.0
  0
LINE
  5
3D7
330
1D
100
AcDbEntity
  8
0
  6
Continuous
 62
     1
380
     2
100
AcDbLine
 10
117.28
 20
81.07499999999999
 30
0.0
 11
116.83
 21
81.47499999999999
 31
0.0
  0
LINE
  5
3D8
330
1D
100
AcDbEntity
  8
0
  6
Continuous
 62
     1
380
     2
100
AcDbLine
 10
121.48
 20
81.47499999999999
 30
0.0
 11
117.93
 21
81.47499999999999
 31
0.0
  0
LINE
  5
3D9
330
1D
100
AcDbEntity
  8
0
  6
Continuous
 62
     1
380
     2
100
AcDbLine
 10
117.73
 20
80.47499999999999
 30
0.0
 11
121.28
 21
80.47499999999999
 31
0.0
  0
LINE
  5
3DA
330
1D
100
AcDbEntity
  8
0
  6
Continuous
 62
     1
380
     2
100
AcDbLine
 10
116.03
 20
76.875
 30
0.0
 11
116.68
 21
80.47499999999999
 31
0.0
  0
LINE
  5
3DB
330
1D
100
AcDbEntity
  8
0
  6
Continuous
 62
     1
380
     2
100
AcDbLine
 10
117.08
 20
76.97499999999999
 30
0.0
 11
117.68
 21
80.37499999999999
 31
0.0
  0
LINE
  5
3DC
330
1D
100
AcDbEntity
  8
0
  6
Continuous
 62
     1
380
     2
100
AcDbLine
 10
118.53
 20
85.075
 30
0.0
 11
118.08
 21
85.575
 31
0.0
  0
LINE
  5
3DD
330
1D
100
AcDbEntity
  8
0
  6
Continuous
 62
     1
380
     2
100
AcDbLine
 10
118.08
 20
85.575
 30
0.0
 11
118.73
 21
86.07499999999999
 31
0.0
  0
LINE
  5
3DE
330
1D
100
AcDbEntity
  8
0
  6
Continuous
 62
     1
380
     2
100
AcDbLine
 10
118.48
 20
84.975
 30
0.0
 11
118.03
 21
85.47499999999999
 31
0.0
  0
LINE
  5
3DF
330
1D
100
AcDbEntity
  8
0
  6
Continuous
 62
     1
380
     2
100
AcDbLine
 10
118.03
 20
85.47499999999999
 30
0.0
 11
117.48
 21
85.075
 31
0.0
  0
LINE
  5
3E0
330
1D
100
AcDbEntity
  8
0
  6
Continuous
 62
     1
380
     2
100
AcDbLine
 10
122.28
 20
86.07499999999999
 30
0.0
 11
118.73
 21
86.07499999999999
 31
0.0
  0
LINE
  5
3E1
330
1D
100
AcDbEntity
  8
0
  6
Continuous
 62
     1
380
     2
100
AcDbLine
 10
118.53
 20
85.075
 30
0.0
 11
122.08
 21
85.075
 31
0.0
  0
LINE
  5
3E2
330
1D
100
AcDbEntity
  8
0
  6
Continuous
 62
     1
380
     2
100
AcDbLine
 10
116.83
 20
81.47499999999999
 30
0.0
 11
117.48
 21
85.075
 31
0.0
  0
LINE
  5
3E3
330
1D
100
AcDbEntity
  8
0
  6
Continuous
 62
     1
380
     2
100
AcDbLine
 10
117.88
 20
81.575
 30
0.0
 11
118.48
 21
84.975
 31
0.0
  0
LWPOLYLINE
  5
3E4
330
1D
100
AcDbEntity
  8
0
  6
Continuous
 62
     1
380
     2
100
AcDbPolyline
 90
        3
 70
     0
 43
0.0
 10
113.98
 20
86.07499999999999
 10
114.38
 20
85.575
 10
113.78
 20
85.075
  0
LINE
  5
3E9
330
1D
100
AcDbEntity
  8
0
  6
Continuous
 62
     1
380
     2
100
AcDbLine
 10
113.78
 20
84.975
 30
0.0
 11
114.38
 21
85.47499999999999
 31
0.0
  0
LINE
  5
3EA
330
1D
100
AcDbEntity
  8
0
  6
Continuous
 62
     1
380
     2
100
AcDbLine
 10
114.38
 20
85.47499999999999
 30
0.0
 11
114.78
 21
85.075
 31
0.0
  0
LINE
  5
3EB
330
1D
100
AcDbEntity
  8
0
  6
Continuous
 62
     1
380
     2
100
AcDbLine
 10
109.43
 20
80.47499999999999
 30
0.0
 11
112.98
 21
80.47499999999999
 31
0.0
  0
LINE
  5
3EC
330
1D
100
AcDbEntity
  8
0
  6
Continuous
 62
     1
380
     2
100
AcDbLine
 10
113.18
 20
81.47499999999999
 30
0.0
 11
113.58
 21
80.975
 31
0.0
  0
LINE
  5
3ED
330
1D
100
AcDbEntity
  8
0
  6
Continuous
 62
     1
380
     2
100
AcDbLine
 10
113.58
 20
80.975
 30
0.0
 11
112.98
 21
80.47499999999999
 31
0.0
  0
LINE
  5
3EE
330
1D
100
AcDbEntity
  8
0
  6
Continuous
 62
     1
380
     2
100
AcDbLine
 10
114.18
 20
81.47499999999999
 30
0.0
 11
113.63
 21
81.07499999999999
 31
0.0
  0
LINE
  5
3EF
330
1D
100
AcDbEntity
  8
0
  6
Continuous
 62
     1
380
     2
100
AcDbLine
 10
113.63
 20
81.07499999999999
 30
0.0
 11
113.18
 21
81.575
 31
0.0
  0
LINE
  5
3F0
330
1D
100
AcDbEntity
  8
0
  6
Continuous
 62
     1
380
     2
100
AcDbLine
 10
112.98
 20
80.37499999999999
 30
0.0
 11
113.58
 21
80.875
 31
0.0
  0
LINE
  5
3F1
330
1D
100
AcDbEntity
  8
0
  6
Continuous
 62
     1
380
     2
100
AcDbLine
 10
113.58
 20
80.875
 30
0.0
 11
113.98
 21
80.47499999999999
 31
0.0
  0
LINE
  5
3F2
330
1D
100
AcDbEntity
  8
0
  6
Continuous
 62
     1
380
     2
100
AcDbLine
 10
114.78
 20
85.075
 30
0.0
 11
114.18
 21
81.47499999999999
 31
0.0
  0
LINE
  5
3F3
330
1D
100
AcDbEntity
  8
0
  6
Continuous
 62
     1
380
     2
100
AcDbLine
 10
113.18
 20
81.575
 30
0.0
 11
113.78
 21
84.975
 31
0.0
  0
LINE
  5
3F4
330
1D
100
AcDbEntity
  8
0
  6
Continuous
 62
     1
380
     2
100
AcDbLine
 10
112.38
 20
76.875
 30
0.0
 11
112.78
 21
76.375
 31
0.0
  0
LINE
  5
3F5
330
1D
100
AcDbEntity
  8
0
  6
Continuous
 62
     1
380
     2
100
AcDbLine
 10
112.78
 20
76.375
 30
0.0
 11
112.18
 21
75.875
 31
0.0
  0
LINE
  5
3F6
330
1D
100
AcDbEntity
  8
0
  6
Continuous
 62
     1
380
     2
100
AcDbLine
 10
113.38
 20
76.875
 30
0.0
 11
112.83
 21
76.47499999999999
 31
0.0
  0
LINE
  5
3F7
330
1D
100
AcDbEntity
  8
0
  6
Continuous
 62
     1
380
     2
100
AcDbLine
 10
112.83
 20
76.47499999999999
 30
0.0
 11
112.38
 21
76.97499999999999
 31
0.0
  0
CIRCLE
  5
3F8
330
1D
100
AcDbEntity
  8
0
  6
Continuous
 62
     1
380
     2
100
AcDbCircle
 10
114.875
 20
76.375
 30
0.0
 40
0.5
  0
LINE
  5
3F9
330
1D
100
AcDbEntity
  8
0
  6
Continuous
 62
     1
380
     2
100
AcDbLine
 10
113.98
 20
80.47499999999999
 30
0.0
 11
113.38
 21
76.875
 31
0.0
  0
LINE
  5
3FA
330
1D
100
AcDbEntity
  8
0
  6
Continuous
 62
     1
380
     2
100
AcDbLine
 10
112.38
 20
76.97499999999999
 30
0.0
 11
112.98
 21
80.37499999999999
 31
0.0
  0
LINE
  5
3FB
330
1D
100
AcDbEntity
  8
0
  6
Continuous
 62
     1
380
     2
100
AcDbLine
 10
108.63
 20
75.875
 30
0.0
 11
112.18
 21
75.875
 31
0.0
  0
LINE
  5
3FC
330
1D
100
AcDbEntity
  8
0
  6
Continuous
 62
     1
380
     2
100
AcDbLine
 10
108.63
 20
75.875
 30
0.0
 11
108.18
 21
76.375
 31
0.0
  0
LINE
  5
3FD
330
1D
100
AcDbEntity
  8
0
  6
Continuous
 62
     1
380
     2
100
AcDbLine
 10
108.18
 20
76.375
 30
0.0
 11
108.83
 21
76.875
 31
0.0
  0
LINE
  5
3FE
330
1D
100
AcDbEntity
  8
0
  6
Continuous
 62
     1
380
     2
100
AcDbLine
 10
107.73
 20
76.875
 30
0.0
 11
108.38
 21
80.47499999999999
 31
0.0
  0
LINE
  5
3FF
330
1D
100
AcDbEntity
  8
0
  6
Continuous
 62
     1
380
     2
100
AcDbLine
 10
108.78
 20
76.97499999999999
 30
0.0
 11
109.38
 21
80.37499999999999
 31
0.0
  0
LINE
  5
400
330
1D
100
AcDbEntity
  8
0
  6
Continuous
 62
     1
380
     2
100
AcDbLine
 10
108.78
 20
76.97499999999999
 30
0.0
 11
108.18
 21
76.47499999999999
 31
0.0
  0
LINE
  5
401
330
1D
100
AcDbEntity
  8
0
  6
Continuous
 62
     1
380
     2
100
AcDbLine
 10
108.18
 20
76.47499999999999
 30
0.0
 11
107.73
 21
76.875
 31
0.0
  0
LINE
  5
402
330
1D
100
AcDbEntity
  8
0
  6
Continuous
 62
     1
380
     2
100
AcDbLine
 10
112.38
 20
76.875
 30
0.0
 11
108.83
 21
76.875
 31
0.0
  0
LINE
  5
403
330
1D
100
AcDbEntity
  8
0
  6
Continuous
 62
     1
380
     2
100
AcDbLine
 10
109.43
 20
80.47499999999999
 30
0.0
 11
108.98
 21
80.975
 31
0.0
  0
LINE
  5
404
330
1D
100
AcDbEntity
  8
0
  6
Continuous
 62
     1
380
     2
100
AcDbLine
 10
108.98
 20
80.975
 30
0.0
 11
109.63
 21
81.47499999999999
 31
0.0
  0
LINE
  5
405
330
1D
100
AcDbEntity
  8
0
  6
Continuous
 62
     1
380
     2
100
AcDbLine
 10
109.38
 20
80.37499999999999
 30
0.0
 11
108.93
 21
80.875
 31
0.0
  0
LINE
  5
406
330
1D
100
AcDbEntity
  8
0
  6
Continuous
 62
     1
380
     2
100
AcDbLine
 10
108.93
 20
80.875
 30
0.0
 11
108.38
 21
80.47499999999999
 31
0.0
  0
LINE
  5
407
330
1D
100
AcDbEntity
  8
0
  6
Continuous
 62
     1
380
     2
100
AcDbLine
 10
109.58
 20
81.575
 30
0.0
 11
108.98
 21
81.07499999999999
 31
0.0
  0
LINE
  5
408
330
1D
100
AcDbEntity
  8
0
  6
Continuous
 62
     1
380
     2
100
AcDbLine
 10
108.98
 20
81.07499999999999
 30
0.0
 11
108.53
 21
81.47499999999999
 31
0.0
  0
LINE
  5
409
330
1D
100
AcDbEntity
  8
0
  6
Continuous
 62
     1
380
     2
100
AcDbLine
 10
113.18
 20
81.47499999999999
 30
0.0
 11
109.63
 21
81.47499999999999
 31
0.0
  0
LINE
  5
40A
330
1D
100
AcDbEntity
  8
0
  6
Continuous
 62
     1
380
     2
100
AcDbLine
 10
110.23
 20
85.075
 30
0.0
 11
109.78
 21
85.575
 31
0.0
  0
LINE
  5
40B
330
1D
100
AcDbEntity
  8
0
  6
Continuous
 62
     1
380
     2
100
AcDbLine
 10
109.78
 20
85.575
 30
0.0
 11
110.43
 21
86.07499999999999
 31
0.0
  0
LINE
  5
40C
330
1D
100
AcDbEntity
  8
0
  6
Continuous
 62
     1
380
     2
100
AcDbLine
 10
110.18
 20
84.975
 30
0.0
 11
109.73
 21
85.47499999999999
 31
0.0
  0
LINE
  5
40D
330
1D
100
AcDbEntity
  8
0
  6
Continuous
 62
     1
380
     2
100
AcDbLine
 10
109.73
 20
85.47499999999999
 30
0.0
 11
109.18
 21
85.075
 31
0.0
  0
LINE
  5
40E
330
1D
100
AcDbEntity
  8
0
  6
Continuous
 62
     1
380
     2
100
AcDbLine
 10
113.98
 20
86.07499999999999
 30
0.0
 11
110.43
 21
86.07499999999999
 31
0.0
  0
LINE
  5
40F
330
1D
100
AcDbEntity
  8
0
  6
Continuous
 62
     1
380
     2
100
AcDbLine
 10
110.23
 20
85.075
 30
0.0
 11
113.78
 21
85.075
 31
0.0
  0
LINE
  5
410
330
1D
100
AcDbEntity
  8
0
  6
Continuous
 62
     1
380
     2
100
AcDbLine
 10
108.53
 20
81.47499999999999
 30
0.0
 11
109.18
 21
85.075
 31
0.0
  0
LINE
  5
411
330
1D
100
AcDbEntity
  8
0
  6
Continuous
 62
     1
380
     2
100
AcDbLine
 10
109.58
 20
81.575
 30
0.0
 11
110.18
 21
84.975
 31
0.0
  0
LINE
  5
41F
330
1D
100
AcDbEntity
  8
0
  6
Continuous
 62
     1
380
     2
100
AcDbLine
 10
105.08
 20
76.875
 30
0.0
 11
104.53
 21
76.47499999999999
 31
0.0
  0
LINE
  5
420
330
1D
100
AcDbEntity
  8
0
  6
Continuous
 62
     1
380
     2
100
AcDbLine
 10
104.53
 20
76.47499999999999
 30
0.0
 11
104.08
 21
76.97499999999999
 31
0.0
  0
LINE
  5
421
330
1D
100
AcDbEntity
  8
0
  6
Continuous
 62
     1
380
     2
100
AcDbLine
 10
104.08
 20
76.97499999999999
 30
0.0
 11
104.68
 21
80.37499999999999
 31
0.0
  0
CIRCLE
  5
422
330
1D
100
AcDbEntity
  8
0
  6
Continuous
 62
     1
380
     2
100
AcDbCircle
 10
106.575
 20
76.375
 30
0.0
 40
0.5
  0
LINE
  5
425
330
1D
100
AcDbEntity
  8
0
  6
Continuous
 62
     1
380
     2
100
AcDbLine
 10
104.88
 20
81.47499999999999
 30
0.0
 11
105.28
 21
80.975
 31
0.0
  0
LINE
  5
426
330
1D
100
AcDbEntity
  8
0
  6
Continuous
 62
     1
380
     2
100
AcDbLine
 10
105.28
 20
80.975
 30
0.0
 11
104.68
 21
80.47499999999999
 31
0.0
  0
LINE
  5
427
330
1D
100
AcDbEntity
  8
0
  6
Continuous
 62
     1
380
     2
100
AcDbLine
 10
105.88
 20
81.47499999999999
 30
0.0
 11
105.33
 21
81.07499999999999
 31
0.0
  0
LINE
  5
428
330
1D
100
AcDbEntity
  8
0
  6
Continuous
 62
     1
380
     2
100
AcDbLine
 10
105.33
 20
81.07499999999999
 30
0.0
 11
104.88
 21
81.575
 31
0.0
  0
LINE
  5
429
330
1D
100
AcDbEntity
  8
0
  6
Continuous
 62
     1
380
     2
100
AcDbLine
 10
104.68
 20
80.37499999999999
 30
0.0
 11
105.28
 21
80.875
 31
0.0
  0
LINE
  5
42A
330
1D
100
AcDbEntity
  8
0
  6
Continuous
 62
     1
380
     2
100
AcDbLine
 10
105.28
 20
80.875
 30
0.0
 11
105.68
 21
80.47499999999999
 31
0.0
  0
LINE
  5
42B
330
1D
100
AcDbEntity
  8
0
  6
Continuous
 62
     1
380
     2
100
AcDbLine
 10
105.68
 20
80.47499999999999
 30
0.0
 11
105.08
 21
76.875
 31
0.0
  0
LINE
  5
42F
330
1D
100
AcDbEntity
  8
0
  6
Continuous
 62
     1
380
     2
100
AcDbLine
 10
105.48
 20
84.975
 30
0.0
 11
106.08
 21
85.47499999999999
 31
0.0
  0
LINE
  5
430
330
1D
100
AcDbEntity
  8
0
  6
Continuous
 62
     1
380
     2
100
AcDbLine
 10
106.08
 20
85.47499999999999
 30
0.0
 11
106.48
 21
85.075
 31
0.0
  0
LINE
  5
432
330
1D
100
AcDbEntity
  8
0
  6
Continuous
 62
     1
380
     2
100
AcDbLine
 10
106.48
 20
85.075
 30
0.0
 11
105.88
 21
81.47499999999999
 31
0.0
  0
LINE
  5
433
330
1D
100
AcDbEntity
  8
0
  6
Continuous
 62
     1
380
     2
100
AcDbLine
 10
104.88
 20
81.575
 30
0.0
 11
105.48
 21
84.975
 31
0.0
  0
LINE
  5
434
330
1D
100
AcDbEntity
  8
0
  6
Continuous
 62
     1
380
     2
100
AcDbLine
 10
101.13
 20
80.47499999999999
 30
0.0
 11
104.68
 21
80.47499999999999
 31
0.0
  0
LINE
  5
435
330
1D
100
AcDbEntity
  8
0
  6
Continuous
 62
     1
380
     2
100
AcDbLine
 10
101.13
 20
80.47499999999999
 30
0.0
 11
100.68
 21
80.975
 31
0.0
  0
LINE
  5
436
330
1D
100
AcDbEntity
  8
0
  6
Continuous
 62
     1
380
     2
100
AcDbLine
 10
100.68
 20
80.975
 30
0.0
 11
101.33
 21
81.47499999999999
 31
0.0
  0
LINE
  5
43F
330
1D
100
AcDbEntity
  8
0
  6
Continuous
 62
     1
380
     2
100
AcDbLine
 10
104.88
 20
81.47499999999999
 30
0.0
 11
101.33
 21
81.47499999999999
 31
0.0
  0
ENDSEC
  0
SECTION
  2
OBJECTS
  0
DICTIONARY
  5
C
330
0
100
AcDbDictionary
281
     1
  3
ACAD_COLOR
350
4D5
  3
ACAD_GROUP
350
D
  3
ACAD_IMAGE_VARS
350
49C
  3
ACAD_LAYOUT
350
4EC
  3
ACAD_MATERIAL
350
4A3
  3
ACAD_MLEADERSTYLE
350
4E9
  3
ACAD_MLINESTYLE
350
17
  3
ACAD_PLOTSETTINGS
350
4ED
  3
ACAD_PLOTSTYLENAME
350
4A1
  3
ACAD_SCALELIST
350
457
  3
ACAD_TABLESTYLE
350
4D6
  3
ACAD_VISUALSTYLE
350
4BC
  3
ACDB_RECOMPOSE_DATA
350
5FC
  3
AcDbVariableDictionary
350
5F2
  3
APPDATA
350
49A
  3
DWGPROPS
350
5FD
  0
DICTIONARY
  5
4F2
330
10
100
AcDbDictionary
280
     1
281
     1
  3
ADSK_XREC_LAYER_RECONCILED
360
4F3
  0
DICTIONARY
  5
4F4
330
28
100
AcDbDictionary
280
     1
281
     1
  3
ADSK_XREC_LAYER_RECONCILED
360
4F5
  0
DICTIONARY
  5
4F6
330
29
100
AcDbDictionary
280
     1
281
     1
  3
ADSK_XREC_LAYER_RECONCILED
360
4F7
  0
DICTIONARY
  5
4F8
330
2A
100
AcDbDictionary
280
     1
281
     1
  3
ADSK_XREC_LAYER_RECONCILED
360
4F9
  0
DICTIONARY
  5
4FA
330
2B
100
AcDbDictionary
280
     1
281
     1
  3
ADSK_XREC_LAYER_RECONCILED
360
4FB
  0
DICTIONARY
  5
4FC
330
2C
100
AcDbDictionary
280
     1
281
     1
  3
ADSK_XREC_LAYER_RECONCILED
360
4FD
  0
DICTIONARY
  5
4FE
330
2D
100
AcDbDictionary
280
     1
281
     1
  3
ADSK_XREC_LAYER_RECONCILED
360
4FF
  0
DICTIONARY
  5
500
330
2E
100
AcDbDictionary
280
     1
281
     1
  3
ADSK_XREC_LAYER_RECONCILED
360
501
  0
DICTIONARY
  5
502
330
2F
100
AcDbDictionary
280
     1
281
     1
  3
ADSK_XREC_LAYER_RECONCILED
360
503
  0
DICTIONARY
  5
504
330
30
100
AcDbDictionary
280
     1
281
     1
  3
ADSK_XREC_LAYER_RECONCILED
360
505
  0
DICTIONARY
  5
506
330
31
100
AcDbDictionary
280
     1
281
     1
  3
ADSK_XREC_LAYER_RECONCILED
360
507
  0
DICTIONARY
  5
508
330
32
100
AcDbDictionary
280
     1
281
     1
  3
ADSK_XREC_LAYER_RECONCILED
360
509
  0
DICTIONARY
  5
50A
330
33
100
AcDbDictionary
280
     1
281
     1
  3
ADSK_XREC_LAYER_RECONCILED
360
50B
  0
DICTIONARY
  5
50C
330
34
100
AcDbDictionary
280
     1
281
     1
  3
ADSK_XREC_LAYER_RECONCILED
360
50D
  0
DICTIONARY
  5
50E
330
35
100
AcDbDictionary
280
     1
281
     1
  3
ADSK_XREC_LAYER_RECONCILED
360
50F
  0
DICTIONARY
  5
510
330
36
100
AcDbDictionary
280
     1
281
     1
  3
ADSK_XREC_LAYER_RECONCILED
360
511
  0
DICTIONARY
  5
512
330
37
100
AcDbDictionary
280
     1
281
     1
  3
ADSK_XREC_LAYER_RECONCILED
360
513
  0
DICTIONARY
  5
514
330
38
100
AcDbDictionary
280
     1
281
     1
  3
ADSK_XREC_LAYER_RECONCILED
360
515
  0
DICTIONARY
  5
516
330
39
100
AcDbDictionary
280
     1
281
     1
  3
ADSK_XREC_LAYER_RECONCILED
360
517
  0
DICTIONARY
  5
518
330
3A
100
AcDbDictionary
280
     1
281
     1
  3
ADSK_XREC_LAYER_RECONCILED
360
519
  0
DICTIONARY
  5
51A
330
3B
100
AcDbDictionary
280
     1
281
     1
  3
ADSK_XREC_LAYER_RECONCILED
360
51B
  0
DICTIONARY
  5
51C
330
3C
100
AcDbDictionary
280
     1
281
     1
  3
ADSK_XREC_LAYER_RECONCILED
360
51D
  0
DICTIONARY
  5
51E
330
3D
100
AcDbDictionary
280
     1
281
     1
  3
ADSK_XREC_LAYER_RECONCILED
360
51F
  0
DICTIONARY
  5
520
330
3E
100
AcDbDictionary
280
     1
281
     1
  3
ADSK_XREC_LAYER_RECONCILED
360
521
  0
DICTIONARY
  5
522
330
3F
100
AcDbDictionary
280
     1
281
     1
  3
ADSK_XREC_LAYER_RECONCILED
360
523
  0
DICTIONARY
  5
524
330
40
100
AcDbDictionary
280
     1
281
     1
  3
ADSK_XREC_LAYER_RECONCILED
360
525
  0
DICTIONARY
  5
526
330
41
100
AcDbDictionary
280
     1
281
     1
  3
ADSK_XREC_LAYER_RECONCILED
360
527
  0
DICTIONARY
  5
528
330
42
100
AcDbDictionary
280
     1
281
     1
  3
ADSK_XREC_LAYER_RECONCILED
360
529
  0
DICTIONARY
  5
52A
330
43
100
AcDbDictionary
280
     1
281
     1
  3
ADSK_XREC_LAYER_RECONCILED
360
52B
  0
DICTIONARY
  5
52C
330
44
100
AcDbDictionary
280
     1
281
     1
  3
ADSK_XREC_LAYER_RECONCILED
360
52D
  0
DICTIONARY
  5
52E
330
45
100
AcDbDictionary
280
     1
281
     1
  3
ADSK_XREC_LAYER_RECONCILED
360
52F
  0
DICTIONARY
  5
530
330
46
100
AcDbDictionary
280
     1
281
     1
  3
ADSK_XREC_LAYER_RECONCILED
360
531
  0
DICTIONARY
  5
532
330
47
100
AcDbDictionary
280
     1
281
     1
  3
ADSK_XREC_LAYER_RECONCILED
360
533
  0
DICTIONARY
  5
534
330
48
100
AcDbDictionary
280
     1
281
     1
  3
ADSK_XREC_LAYER_RECONCILED
360
535
  0
DICTIONARY
  5
536
330
49
100
AcDbDictionary
280
     1
281
     1
  3
ADSK_XREC_LAYER_RECONCILED
360
537
  0
DICTIONARY
  5
538
330
4A
100
AcDbDictionary
280
     1
281
     1
  3
ADSK_XREC_LAYER_RECONCILED
360
539
  0
DICTIONARY
  5
53A
330
4B
100
AcDbDictionary
280
     1
281
     1
  3
ADSK_XREC_LAYER_RECONCILED
360
53B
  0
DICTIONARY
  5
53C
330
4C
100
AcDbDictionary
280
     1
281
     1
  3
ADSK_XREC_LAYER_RECONCILED
360
53D
  0
DICTIONARY
  5
53E
330
4D
100
AcDbDictionary
280
     1
281
     1
  3
ADSK_XREC_LAYER_RECONCILED
360
53F
  0
DICTIONARY
  5
540
330
4E
100
AcDbDictionary
280
     1
281
     1
  3
ADSK_XREC_LAYER_RECONCILED
360
541
  0
DICTIONARY
  5
542
330
4F
100
AcDbDictionary
280
     1
281
     1
  3
ADSK_XREC_LAYER_RECONCILED
360
543
  0
DICTIONARY
  5
544
330
50
100
AcDbDictionary
280
     1
281
     1
  3
ADSK_XREC_LAYER_RECONCILED
360
545
  0
DICTIONARY
  5
546
330
51
100
AcDbDictionary
280
     1
281
     1
  3
ADSK_XREC_LAYER_RECONCILED
360
547
  0
DICTIONARY
  5
548
330
52
100
AcDbDictionary
280
     1
281
     1
  3
ADSK_XREC_LAYER_RECONCILED
360
549
  0
DICTIONARY
  5
54A
330
53
100
AcDbDictionary
280
     1
281
     1
  3
ADSK_XREC_LAYER_RECONCILED
360
54B
  0
DICTIONARY
  5
54C
330
54
100
AcDbDictionary
280
     1
281
     1
  3
ADSK_XREC_LAYER_RECONCILED
360
54D
  0
DICTIONARY
  5
54E
330
55
100
AcDbDictionary
280
     1
281
     1
  3
ADSK_XREC_LAYER_RECONCILED
360
54F
  0
DICTIONARY
  5
550
330
56
100
AcDbDictionary
280
     1
281
     1
  3
ADSK_XREC_LAYER_RECONCILED
360
551
  0
DICTIONARY
  5
552
330
57
100
AcDbDictionary
280
     1
281
     1
  3
ADSK_XREC_LAYER_RECONCILED
360
553
  0
DICTIONARY
  5
554
330
58
100
AcDbDictionary
280
     1
281
     1
  3
ADSK_XREC_LAYER_RECONCILED
360
555
  0
DICTIONARY
  5
556
330
59
100
AcDbDictionary
280
     1
281
     1
  3
ADSK_XREC_LAYER_RECONCILED
360
557
  0
DICTIONARY
  5
558
330
5A
100
AcDbDictionary
280
     1
281
     1
  3
ADSK_XREC_LAYER_RECONCILED
360
559
  0
DICTIONARY
  5
55A
330
5B
100
AcDbDictionary
280
     1
281
     1
  3
ADSK_XREC_LAYER_RECONCILED
360
55B
  0
DICTIONARY
  5
55C
330
5C
100
AcDbDictionary
280
     1
281
     1
  3
ADSK_XREC_LAYER_RECONCILED
360
55D
  0
DICTIONARY
  5
55E
330
5D
100
AcDbDictionary
280
     1
281
     1
  3
ADSK_XREC_LAYER_RECONCILED
360
55F
  0
DICTIONARY
  5
560
330
5E
100
AcDbDictionary
280
     1
281
     1
  3
ADSK_XREC_LAYER_RECONCILED
360
561
  0
DICTIONARY
  5
562
330
5F
100
AcDbDictionary
280
     1
281
     1
  3
ADSK_XREC_LAYER_RECONCILED
360
563
  0
DICTIONARY
  5
564
330
60
100
AcDbDictionary
280
     1
281
     1
  3
ADSK_XREC_LAYER_RECONCILED
360
565
  0
DICTIONARY
  5
566
330
61
100
AcDbDictionary
280
     1
281
     1
  3
ADSK_XREC_LAYER_RECONCILED
360
567
  0
DICTIONARY
  5
568
330
62
100
AcDbDictionary
280
     1
281
     1
  3
ADSK_XREC_LAYER_RECONCILED
360
569
  0
DICTIONARY
  5
56A
330
63
100
AcDbDictionary
280
     1
281
     1
  3
ADSK_XREC_LAYER_RECONCILED
360
56B
  0
DICTIONARY
  5
56C
330
64
100
AcDbDictionary
280
     1
281
     1
  3
ADSK_XREC_LAYER_RECONCILED
360
56D
  0
DICTIONARY
  5
56E
330
65
100
AcDbDictionary
280
     1
281
     1
  3
ADSK_XREC_LAYER_RECONCILED
360
56F
  0
DICTIONARY
  5
570
330
66
100
AcDbDictionary
280
     1
281
     1
  3
ADSK_XREC_LAYER_RECONCILED
360
571
  0
DICTIONARY
  5
572
330
67
100
AcDbDictionary
280
     1
281
     1
  3
ADSK_XREC_LAYER_RECONCILED
360
573
  0
DICTIONARY
  5
574
330
68
100
AcDbDictionary
280
     1
281
     1
  3
ADSK_XREC_LAYER_RECONCILED
360
575
  0
DICTIONARY
  5
576
330
69
100
AcDbDictionary
280
     1
281
     1
  3
ADSK_XREC_LAYER_RECONCILED
360
577
  0
DICTIONARY
  5
578
330
6A
100
AcDbDictionary
280
     1
281
     1
  3
ADSK_XREC_LAYER_RECONCILED
360
579
  0
DICTIONARY
  5
57A
330
6B
100
AcDbDictionary
280
     1
281
     1
  3
ADSK_XREC_LAYER_RECONCILED
360
57B
  0
DICTIONARY
  5
57C
330
6C
100
AcDbDictionary
280
     1
281
     1
  3
ADSK_XREC_LAYER_RECONCILED
360
57D
  0
DICTIONARY
  5
57E
330
6D
100
AcDbDictionary
280
     1
281
     1
  3
ADSK_XREC_LAYER_RECONCILED
360
57F
  0
DICTIONARY
  5
580
330
6E
100
AcDbDictionary
280
     1
281
     1
  3
ADSK_XREC_LAYER_RECONCILED
360
581
  0
DICTIONARY
  5
582
330
6F
100
AcDbDictionary
280
     1
281
     1
  3
ADSK_XREC_LAYER_RECONCILED
360
583
  0
DICTIONARY
  5
584
330
70
100
AcDbDictionary
280
     1
281
     1
  3
ADSK_XREC_LAYER_RECONCILED
360
585
  0
DICTIONARY
  5
586
330
71
100
AcDbDictionary
280
     1
281
     1
  3
ADSK_XREC_LAYER_RECONCILED
360
587
  0
DICTIONARY
  5
588
330
72
100
AcDbDictionary
280
     1
281
     1
  3
ADSK_XREC_LAYER_RECONCILED
360
589
  0
DICTIONARY
  5
58A
330
73
100
AcDbDictionary
280
     1
281
     1
  3
ADSK_XREC_LAYER_RECONCILED
360
58B
  0
DICTIONARY
  5
58C
330
74
100
AcDbDictionary
280
     1
281
     1
  3
ADSK_XREC_LAYER_RECONCILED
360
58D
  0
DICTIONARY
  5
58E
330
75
100
AcDbDictionary
280
     1
281
     1
  3
ADSK_XREC_LAYER_RECONCILED
360
58F
  0
DICTIONARY
  5
590
330
76
100
AcDbDictionary
280
     1
281
     1
  3
ADSK_XREC_LAYER_RECONCILED
360
591
  0
DICTIONARY
  5
592
330
77
100
AcDbDictionary
280
     1
281
     1
  3
ADSK_XREC_LAYER_RECONCILED
360
593
  0
DICTIONARY
  5
594
330
78
100
AcDbDictionary
280
     1
281
     1
  3
ADSK_XREC_LAYER_RECONCILED
360
595
  0
DICTIONARY
  5
596
330
79
100
AcDbDictionary
280
     1
281
     1
  3
ADSK_XREC_LAYER_RECONCILED
360
597
  0
DICTIONARY
  5
598
330
7A
100
AcDbDictionary
280
     1
281
     1
  3
ADSK_XREC_LAYER_RECONCILED
360
599
  0
DICTIONARY
  5
59A
330
7B
100
AcDbDictionary
280
     1
281
     1
  3
ADSK_XREC_LAYER_RECONCILED
360
59B
  0
DICTIONARY
  5
59C
330
7C
100
AcDbDictionary
280
     1
281
     1
  3
ADSK_XREC_LAYER_RECONCILED
360
59D
  0
DICTIONARY
  5
59E
330
7D
100
AcDbDictionary
280
     1
281
     1
  3
ADSK_XREC_LAYER_RECONCILED
360
59F
  0
DICTIONARY
  5
5A0
330
7E
100
AcDbDictionary
280
     1
281
     1
  3
ADSK_XREC_LAYER_RECONCILED
360
5A1
  0
DICTIONARY
  5
5A2
330
7F
100
AcDbDictionary
280
     1
281
     1
  3
ADSK_XREC_LAYER_RECONCILED
360
5A3
  0
DICTIONARY
  5
5A4
330
80
100
AcDbDictionary
280
     1
281
     1
  3
ADSK_XREC_LAYER_RECONCILED
360
5A5
  0
DICTIONARY
  5
5A6
330
81
100
AcDbDictionary
280
     1
281
     1
  3
ADSK_XREC_LAYER_RECONCILED
360
5A7
  0
DICTIONARY
  5
5A8
330
82
100
AcDbDictionary
280
     1
281
     1
  3
ADSK_XREC_LAYER_RECONCILED
360
5A9
  0
DICTIONARY
  5
5AA
330
83
100
AcDbDictionary
280
     1
281
     1
  3
ADSK_XREC_LAYER_RECONCILED
360
5AB
  0
DICTIONARY
  5
5AC
330
84
100
AcDbDictionary
280
     1
281
     1
  3
ADSK_XREC_LAYER_RECONCILED
360
5AD
  0
DICTIONARY
  5
5AE
330
85
100
AcDbDictionary
280
     1
281
     1
  3
ADSK_XREC_LAYER_RECONCILED
360
5AF
  0
DICTIONARY
  5
5B0
330
86
100
AcDbDictionary
280
     1
281
     1
  3
ADSK_XREC_LAYER_RECONCILED
360
5B1
  0
DICTIONARY
  5
5B2
330
87
100
AcDbDictionary
280
     1
281
     1
  3
ADSK_XREC_LAYER_RECONCILED
360
5B3
  0
DICTIONARY
  5
5B4
330
88
100
AcDbDictionary
280
     1
281
     1
  3
ADSK_XREC_LAYER_RECONCILED
360
5B5
  0
DICTIONARY
  5
5B6
330
89
100
AcDbDictionary
280
     1
281
     1
  3
ADSK_XREC_LAYER_RECONCILED
360
5B7
  0
DICTIONARY
  5
5B8
330
8A
100
AcDbDictionary
280
     1
281
     1
  3
ADSK_XREC_LAYER_RECONCILED
360
5B9
  0
DICTIONARY
  5
5BA
330
8B
100
AcDbDictionary
280
     1
281
     1
  3
ADSK_XREC_LAYER_RECONCILED
360
5BB
  0
DICTIONARY
  5
5BC
330
8C
100
AcDbDictionary
280
     1
281
     1
  3
ADSK_XREC_LAYER_RECONCILED
360
5BD
  0
DICTIONARY
  5
5BE
330
8D
100
AcDbDictionary
280
     1
281
     1
  3
ADSK_XREC_LAYER_RECONCILED
360
5BF
  0
DICTIONARY
  5
5C0
330
8E
100
AcDbDictionary
280
     1
281
     1
  3
ADSK_XREC_LAYER_RECONCILED
360
5C1
  0
DICTIONARY
  5
5C2
330
8F
100
AcDbDictionary
280
     1
281
     1
  3
ADSK_XREC_LAYER_RECONCILED
360
5C3
  0
DICTIONARY
  5
5C4
330
90
100
AcDbDictionary
280
     1
281
     1
  3
ADSK_XREC_LAYER_RECONCILED
360
5C5
  0
DICTIONARY
  5
5C6
330
91
100
AcDbDictionary
280
     1
281
     1
  3
ADSK_XREC_LAYER_RECONCILED
360
5C7
  0
DICTIONARY
  5
5C8
330
92
100
AcDbDictionary
280
     1
281
     1
  3
ADSK_XREC_LAYER_RECONCILED
360
5C9
  0
DICTIONARY
  5
5CA
330
93
100
AcDbDictionary
280
     1
281
     1
  3
ADSK_XREC_LAYER_RECONCILED
360
5CB
  0
DICTIONARY
  5
5CC
330
94
100
AcDbDictionary
280
     1
281
     1
  3
ADSK_XREC_LAYER_RECONCILED
360
5CD
  0
DICTIONARY
  5
5CE
330
95
100
AcDbDictionary
280
     1
281
     1
  3
ADSK_XREC_LAYER_RECONCILED
360
5CF
  0
DICTIONARY
  5
5D0
330
96
100
AcDbDictionary
280
     1
281
     1
  3
ADSK_XREC_LAYER_RECONCILED
360
5D1
  0
DICTIONARY
  5
5D2
330
97
100
AcDbDictionary
280
     1
281
     1
  3
ADSK_XREC_LAYER_RECONCILED
360
5D3
  0
DICTIONARY
  5
5D4
330
98
100
AcDbDictionary
280
     1
281
     1
  3
ADSK_XREC_LAYER_RECONCILED
360
5D5
  0
DICTIONARY
  5
5D6
330
99
100
AcDbDictionary
280
     1
281
     1
  3
ADSK_XREC_LAYER_RECONCILED
360
5D7
  0
DICTIONARY
  5
5D8
330
9A
100
AcDbDictionary
280
     1
281
     1
  3
ADSK_XREC_LAYER_RECONCILED
360
5D9
  0
DICTIONARY
  5
5DA
330
9B
100
AcDbDictionary
280
     1
281
     1
  3
ADSK_XREC_LAYER_RECONCILED
360
5DB
  0
DICTIONARY
  5
5DC
330
9C
100
AcDbDictionary
280
     1
281
     1
  3
ADSK_XREC_LAYER_RECONCILED
360
5DD
  0
DICTIONARY
  5
5DE
330
9D
100
AcDbDictionary
280
     1
281
     1
  3
ADSK_XREC_LAYER_RECONCILED
360
5DF
  0
DICTIONARY
  5
5E0
330
9E
100
AcDbDictionary
280
     1
281
     1
  3
ADSK_XREC_LAYER_RECONCILED
360
5E1
  0
DICTIONARY
  5
5E2
330
9F
100
AcDbDictionary
280
     1
281
     1
  3
ADSK_XREC_LAYER_RECONCILED
360
5E3
  0
DICTIONARY
  5
5E4
330
A0
100
AcDbDictionary
280
     1
281
     1
  3
ADSK_XREC_LAYER_RECONCILED
360
5E5
  0
DICTIONARY
  5
5E6
330
A1
100
AcDbDictionary
280
     1
281
     1
  3
ADSK_XREC_LAYER_RECONCILED
360
5E7
  0
DICTIONARY
  5
5E8
330
A2
100
AcDbDictionary
280
     1
281
     1
  3
ADSK_XREC_LAYER_RECONCILED
360
5E9
  0
DICTIONARY
  5
5EA
330
A3
100
AcDbDictionary
280
     1
281
     1
  3
ADSK_XREC_LAYER_RECONCILED
360
5EB
  0
DICTIONARY
  5
5EC
330
A4
100
AcDbDictionary
280
     1
281
     1
  3
ADSK_XREC_LAYER_RECONCILED
360
5ED
  0
DICTIONARY
  5
5EE
330
A5
100
AcDbDictionary
280
     1
281
     1
  3
ADSK_XREC_LAYER_RECONCILED
360
5EF
  0
DICTIONARY
  5
5F0
330
A6
100
AcDbDictionary
280
     1
281
     1
  3
ADSK_XREC_LAYER_RECONCILED
360
5F1
  0
DICTIONARY
  5
4D5
102
{ACAD_REACTORS
330
C
102
}
330
C
100
AcDbDictionary
281
     1
  0
DICTIONARY
  5
D
102
{ACAD_REACTORS
330
C
102
}
330
C
100
AcDbDictionary
281
     1
  0
RASTERVARIABLES
  5
49C
102
{ACAD_REACTORS
330
C
102
}
330
C
100
AcDbRasterVariables
 90
        0
 70
     1
 71
     1
 72
     0
  0
DICTIONARY
  5
4EC
102
{ACAD_REACTORS
330
C
102
}
330
C
100
AcDbDictionary
281
     1
  3
Model
350
4EE
  3
レイアウト1
350
4EF
  0
DICTIONARY
  5
4A3
102
{ACAD_REACTORS
330
C
102
}
330
C
100
AcDbDictionary
281
     1
  3
ByBlock
350
4AC
  3
ByLayer
350
4A4
  3
Global
350
4B4
  0
DICTIONARY
  5
4E9
102
{ACAD_REACTORS
330
C
102
}
330
C
100
AcDbDictionary
281
     1
  3
Standard
350
4EA
  0
DICTIONARY
  5
17
102
{ACAD_REACTORS
330
C
102
}
330
C
100
AcDbDictionary
281
     1
  3
STANDARD
350
18
  0
DICTIONARY
  5
4ED
102
{ACAD_REACTORS
330
C
102
}
330
C
100
AcDbDictionary
281
     1
  0
ACDBDICTIONARYWDFLT
  5
4A1
102
{ACAD_REACTORS
330
C
102
}
330
C
100
AcDbDictionary
281
     1
  3
Normal
350
4A2
  3
Style 1
350
4EB
100
AcDbDictionaryWithDefault
340
4EB
  0
DICTIONARY
  5
457
102
{ACAD_REACTORS
330
C
102
}
330
C
100
AcDbDictionary
281
     1
  3
A0
350
4D8
  3
A1
350
4D9
  3
A2
350
4DA
  3
A3
350
4DB
  3
A4
350
4DC
  3
A5
350
4DD
  3
A6
350
4DE
  3
A7
350
4DF
  3
A8
350
4E0
  3
A9
350
4E1
  3
B0
350
4E2
  3
B1
350
4E3
  3
B2
350
4E4
  3
B3
350
4E5
  3
B4
350
4E6
  3
B5
350
4E7
  3
B6
350
4E8
  0
DICTIONARY
  5
4D6
102
{ACAD_REACTORS
330
C
102
}
330
C
100
AcDbDictionary
281
     1
  3
Standard
350
4D7
  0
DICTIONARY
  5
4BC
102
{ACAD_REACTORS
330
C
102
}
330
C
100
AcDbDictionary
281
     1
  3
2dWireframe
350
4C2
  3
Basic
350
4C1
  3
Brighten
350
4C8
  3
ColorChange
350
4CC
  3
Conceptual
350
4C5
  3
Dim
350
4C7
  3
EdgeColorOff
350
4D4
  3
Facepattern
350
4CB
  3
Flat
350
4BD
  3
FlatWithEdges
350
4BE
  3
Gouraud
350
4BF
  3
GouraudWithEdges
350
4C0
  3
Hidden
350
4C4
  3
JitterOff
350
4D2
  3
Linepattern
350
4CA
  3
OverhangOff
350
4D3
  3
Realistic
350
4C6
  3
Shaded
350
4D1
  3
Shaded with edges
350
4D0
  3
Shades of Gray
350
4CD
  3
Sketchy
350
4CE
  3
Thicken
350
4C9
  3
Wireframe
350
4C3
  3
X-Ray
350
4CF
  0
XRECORD
  5
5FC
102
{ACAD_REACTORS
330
C
102
}
330
C
100
AcDbXrecord
280
     1
 90
        1
330
4D7
  0
DICTIONARY
  5
5F2
102
{ACAD_REACTORS
330
C
102
}
330
C
100
AcDbDictionary
281
     1
  3
CANNOSCALE
350
5F5
  3
CMLEADERSTYLE
350
5F4
  3
CTABLESTYLE
350
5F3
  3
DIMASSOC
350
5F8
  3
INDEXCTL
350
5F7
  3
SORTENTS
350
5F6
  3
XCLIPFRAME
350
5F9
  0
DICTIONARY
  5
49A
102
{ACAD_REACTORS
330
C
102
}
330
C
100
AcDbDictionary
281
     1
  0
XRECORD
  5
5FD
102
{ACAD_REACTORS
330
C
102
}
330
C
100
AcDbXrecord
280
     1
  1
DWGPROPS COOKIE
  2

  3

  4

  6

  7

  8
user1
  9

300
=
301
=
302
=
303
=
304
=
305
=
306
=
307
=
308
=
309
=
 40
0.0036678703703704
 41
2458337.625623113
 42
2458638.49511559
  1

 90
        0
  0
XRECORD
  5
4F3
102
{ACAD_REACTORS
330
4F2
102
}
330
4F2
100
AcDbXrecord
280
     1
290
     1
  0
XRECORD
  5
4F5
102
{ACAD_REACTORS
330
4F4
102
}
330
4F4
100
AcDbXrecord
280
     1
290
     1
  0
XRECORD
  5
4F7
102
{ACAD_REACTORS
330
4F6
102
}
330
4F6
100
AcDbXrecord
280
     1
290
     1
  0
XRECORD
  5
4F9
102
{ACAD_REACTORS
330
4F8
102
}
330
4F8
100
AcDbXrecord
280
     1
290
     1
  0
XRECORD
  5
4FB
102
{ACAD_REACTORS
330
4FA
102
}
330
4FA
100
AcDbXrecord
280
     1
290
     1
  0
XRECORD
  5
4FD
102
{ACAD_REACTORS
330
4FC
102
}
330
4FC
100
AcDbXrecord
280
     1
290
     1
  0
XRECORD
  5
4FF
102
{ACAD_REACTORS
330
4FE
102
}
330
4FE
100
AcDbXrecord
280
     1
290
     1
  0
XRECORD
  5
501
102
{ACAD_REACTORS
330
500
102
}
330
500
100
AcDbXrecord
280
     1
290
     1
  0
XRECORD
  5
503
102
{ACAD_REACTORS
330
502
102
}
330
502
100
AcDbXrecord
280
     1
290
     1
  0
XRECORD
  5
505
102
{ACAD_REACTORS
330
504
102
}
330
504
100
AcDbXrecord
280
     1
290
     1
  0
XRECORD
  5
507
102
{ACAD_REACTORS
330
506
102
}
330
506
100
AcDbXrecord
280
     1
290
     1
  0
XRECORD
  5
509
102
{ACAD_REACTORS
330
508
102
}
330
508
100
AcDbXrecord
280
     1
290
     1
  0
XRECORD
  5
50B
102
{ACAD_REACTORS
330
50A
102
}
330
50A
100
AcDbXrecord
280
     1
290
     1
  0
XRECORD
  5
50D
102
{ACAD_REACTORS
330
50C
102
}
330
50C
100
AcDbXrecord
280
     1
290
     1
  0
XRECORD
  5
50F
102
{ACAD_REACTORS
330
50E
102
}
330
50E
100
AcDbXrecord
280
     1
290
     1
  0
XRECORD
  5
511
102
{ACAD_REACTORS
330
510
102
}
330
510
100
AcDbXrecord
280
     1
290
     1
  0
XRECORD
  5
513
102
{ACAD_REACTORS
330
512
102
}
330
512
100
AcDbXrecord
280
     1
290
     1
  0
XRECORD
  5
515
102
{ACAD_REACTORS
330
514
102
}
330
514
100
AcDbXrecord
280
     1
290
     1
  0
XRECORD
  5
517
102
{ACAD_REACTORS
330
516
102
}
330
516
100
AcDbXrecord
280
     1
290
     1
  0
XRECORD
  5
519
102
{ACAD_REACTORS
330
518
102
}
330
518
100
AcDbXrecord
280
     1
290
     1
  0
XRECORD
  5
51B
102
{ACAD_REACTORS
330
51A
102
}
330
51A
100
AcDbXrecord
280
     1
290
     1
  0
XRECORD
  5
51D
102
{ACAD_REACTORS
330
51C
102
}
330
51C
100
AcDbXrecord
280
     1
290
     1
  0
XRECORD
  5
51F
102
{ACAD_REACTORS
330
51E
102
}
330
51E
100
AcDbXrecord
280
     1
290
     1
  0
XRECORD
  5
521
102
{ACAD_REACTORS
330
520
102
}
330
520
100
AcDbXrecord
280
     1
290
     1
  0
XRECORD
  5
523
102
{ACAD_REACTORS
330
522
102
}
330
522
100
AcDbXrecord
280
     1
290
     1
  0
XRECORD
  5
525
102
{ACAD_REACTORS
330
524
102
}
330
524
100
AcDbXrecord
280
     1
290
     1
  0
XRECORD
  5
527
102
{ACAD_REACTORS
330
526
102
}
330
526
100
AcDbXrecord
280
     1
290
     1
  0
XRECORD
  5
529
102
{ACAD_REACTORS
330
528
102
}
330
528
100
AcDbXrecord
280
     1
290
     1
  0
XRECORD
  5
52B
102
{ACAD_REACTORS
330
52A
102
}
330
52A
100
AcDbXrecord
280
     1
290
     1
  0
XRECORD
  5
52D
102
{ACAD_REACTORS
330
52C
102
}
330
52C
100
AcDbXrecord
280
     1
290
     1
  0
XRECORD
  5
52F
102
{ACAD_REACTORS
330
52E
102
}
330
52E
100
AcDbXrecord
280
     1
290
     1
  0
XRECORD
  5
531
102
{ACAD_REACTORS
330
530
102
}
330
530
100
AcDbXrecord
280
     1
290
     1
  0
XRECORD
  5
533
102
{ACAD_REACTORS
330
532
102
}
330
532
100
AcDbXrecord
280
     1
290
     1
  0
XRECORD
  5
535
102
{ACAD_REACTORS
330
534
102
}
330
534
100
AcDbXrecord
280
     1
290
     1
  0
XRECORD
  5
537
102
{ACAD_REACTORS
330
536
102
}
330
536
100
AcDbXrecord
280
     1
290
     1
  0
XRECORD
  5
539
102
{ACAD_REACTORS
330
538
102
}
330
538
100
AcDbXrecord
280
     1
290
     1
  0
XRECORD
  5
53B
102
{ACAD_REACTORS
330
53A
102
}
330
53A
100
AcDbXrecord
280
     1
290
     1
  0
XRECORD
  5
53D
102
{ACAD_REACTORS
330
53C
102
}
330
53C
100
AcDbXrecord
280
     1
290
     1
  0
XRECORD
  5
53F
102
{ACAD_REACTORS
330
53E
102
}
330
53E
100
AcDbXrecord
280
     1
290
     1
  0
XRECORD
  5
541
102
{ACAD_REACTORS
330
540
102
}
330
540
100
AcDbXrecord
280
     1
290
     1
  0
XRECORD
  5
543
102
{ACAD_REACTORS
330
542
102
}
330
542
100
AcDbXrecord
280
     1
290
     1
  0
XRECORD
  5
545
102
{ACAD_REACTORS
330
544
102
}
330
544
100
AcDbXrecord
280
     1
290
     1
  0
XRECORD
  5
547
102
{ACAD_REACTORS
330
546
102
}
330
546
100
AcDbXrecord
280
     1
290
     1
  0
XRECORD
  5
549
102
{ACAD_REACTORS
330
548
102
}
330
548
100
AcDbXrecord
280
     1
290
     1
  0
XRECORD
  5
54B
102
{ACAD_REACTORS
330
54A
102
}
330
54A
100
AcDbXrecord
280
     1
290
     1
  0
XRECORD
  5
54D
102
{ACAD_REACTORS
330
54C
102
}
330
54C
100
AcDbXrecord
280
     1
290
     1
  0
XRECORD
  5
54F
102
{ACAD_REACTORS
330
54E
102
}
330
54E
100
AcDbXrecord
280
     1
290
     1
  0
XRECORD
  5
551
102
{ACAD_REACTORS
330
550
102
}
330
550
100
AcDbXrecord
280
     1
290
     1
  0
XRECORD
  5
553
102
{ACAD_REACTORS
330
552
102
}
330
552
100
AcDbXrecord
280
     1
290
     1
  0
XRECORD
  5
555
102
{ACAD_REACTORS
330
554
102
}
330
554
100
AcDbXrecord
280
     1
290
     1
  0
XRECORD
  5
557
102
{ACAD_REACTORS
330
556
102
}
330
556
100
AcDbXrecord
280
     1
290
     1
  0
XRECORD
  5
559
102
{ACAD_REACTORS
330
558
102
}
330
558
100
AcDbXrecord
280
     1
290
     1
  0
XRECORD
  5
55B
102
{ACAD_REACTORS
330
55A
102
}
330
55A
100
AcDbXrecord
280
     1
290
     1
  0
XRECORD
  5
55D
102
{ACAD_REACTORS
330
55C
102
}
330
55C
100
AcDbXrecord
280
     1
290
     1
  0
XRECORD
  5
55F
102
{ACAD_REACTORS
330
55E
102
}
330
55E
100
AcDbXrecord
280
     1
290
     1
  0
XRECORD
  5
561
102
{ACAD_REACTORS
330
560
102
}
330
560
100
AcDbXrecord
280
     1
290
     1
  0
XRECORD
  5
563
102
{ACAD_REACTORS
330
562
102
}
330
562
100
AcDbXrecord
280
     1
290
     1
  0
XRECORD
  5
565
102
{ACAD_REACTORS
330
564
102
}
330
564
100
AcDbXrecord
280
     1
290
     1
  0
XRECORD
  5
567
102
{ACAD_REACTORS
330
566
102
}
330
566
100
AcDbXrecord
280
     1
290
     1
  0
XRECORD
  5
569
102
{ACAD_REACTORS
330
568
102
}
330
568
100
AcDbXrecord
280
     1
290
     1
  0
XRECORD
  5
56B
102
{ACAD_REACTORS
330
56A
102
}
330
56A
100
AcDbXrecord
280
     1
290
     1
  0
XRECORD
  5
56D
102
{ACAD_REACTORS
330
56C
102
}
330
56C
100
AcDbXrecord
280
     1
290
     1
  0
XRECORD
  5
56F
102
{ACAD_REACTORS
330
56E
102
}
330
56E
100
AcDbXrecord
280
     1
290
     1
  0
XRECORD
  5
571
102
{ACAD_REACTORS
330
570
102
}
330
570
100
AcDbXrecord
280
     1
290
     1
  0
XRECORD
  5
573
102
{ACAD_REACTORS
330
572
102
}
330
572
100
AcDbXrecord
280
     1
290
     1
  0
XRECORD
  5
575
102
{ACAD_REACTORS
330
574
102
}
330
574
100
AcDbXrecord
280
     1
290
     1
  0
XRECORD
  5
577
102
{ACAD_REACTORS
330
576
102
}
330
576
100
AcDbXrecord
280
     1
290
     1
  0
XRECORD
  5
579
102
{ACAD_REACTORS
330
578
102
}
330
578
100
AcDbXrecord
280
     1
290
     1
  0
XRECORD
  5
57B
102
{ACAD_REACTORS
330
57A
102
}
330
57A
100
AcDbXrecord
280
     1
290
     1
  0
XRECORD
  5
57D
102
{ACAD_REACTORS
330
57C
102
}
330
57C
100
AcDbXrecord
280
     1
290
     1
  0
XRECORD
  5
57F
102
{ACAD_REACTORS
330
57E
102
}
330
57E
100
AcDbXrecord
280
     1
290
     1
  0
XRECORD
  5
581
102
{ACAD_REACTORS
330
580
102
}
330
580
100
AcDbXrecord
280
     1
290
     1
  0
XRECORD
  5
583
102
{ACAD_REACTORS
330
582
102
}
330
582
100
AcDbXrecord
280
     1
290
     1
  0
XRECORD
  5
585
102
{ACAD_REACTORS
330
584
102
}
330
584
100
AcDbXrecord
280
     1
290
     1
  0
XRECORD
  5
587
102
{ACAD_REACTORS
330
586
102
}
330
586
100
AcDbXrecord
280
     1
290
     1
  0
XRECORD
  5
589
102
{ACAD_REACTORS
330
588
102
}
330
588
100
AcDbXrecord
280
     1
290
     1
  0
XRECORD
  5
58B
102
{ACAD_REACTORS
330
58A
102
}
330
58A
100
AcDbXrecord
280
     1
290
     1
  0
XRECORD
  5
58D
102
{ACAD_REACTORS
330
58C
102
}
330
58C
100
AcDbXrecord
280
     1
290
     1
  0
XRECORD
  5
58F
102
{ACAD_REACTORS
330
58E
102
}
330
58E
100
AcDbXrecord
280
     1
290
     1
  0
XRECORD
  5
591
102
{ACAD_REACTORS
330
590
102
}
330
590
100
AcDbXrecord
280
     1
290
     1
  0
XRECORD
  5
593
102
{ACAD_REACTORS
330
592
102
}
330
592
100
AcDbXrecord
280
     1
290
     1
  0
XRECORD
  5
595
102
{ACAD_REACTORS
330
594
102
}
330
594
100
AcDbXrecord
280
     1
290
     1
  0
XRECORD
  5
597
102
{ACAD_REACTORS
330
596
102
}
330
596
100
AcDbXrecord
280
     1
290
     1
  0
XRECORD
  5
599
102
{ACAD_REACTORS
330
598
102
}
330
598
100
AcDbXrecord
280
     1
290
     1
  0
XRECORD
  5
59B
102
{ACAD_REACTORS
330
59A
102
}
330
59A
100
AcDbXrecord
280
     1
290
     1
  0
XRECORD
  5
59D
102
{ACAD_REACTORS
330
59C
102
}
330
59C
100
AcDbXrecord
280
     1
290
     1
  0
XRECORD
  5
59F
102
{ACAD_REACTORS
330
59E
102
}
330
59E
100
AcDbXrecord
280
     1
290
     1
  0
XRECORD
  5
5A1
102
{ACAD_REACTORS
330
5A0
102
}
330
5A0
100
AcDbXrecord
280
     1
290
     1
  0
XRECORD
  5
5A3
102
{ACAD_REACTORS
330
5A2
102
}
330
5A2
100
AcDbXrecord
280
     1
290
     1
  0
XRECORD
  5
5A5
102
{ACAD_REACTORS
330
5A4
102
}
330
5A4
100
AcDbXrecord
280
     1
290
     1
  0
XRECORD
  5
5A7
102
{ACAD_REACTORS
330
5A6
102
}
330
5A6
100
AcDbXrecord
280
     1
290
     1
  0
XRECORD
  5
5A9
102
{ACAD_REACTORS
330
5A8
102
}
330
5A8
100
AcDbXrecord
280
     1
290
     1
  0
XRECORD
  5
5AB
102
{ACAD_REACTORS
330
5AA
102
}
330
5AA
100
AcDbXrecord
280
     1
290
     1
  0
XRECORD
  5
5AD
102
{ACAD_REACTORS
330
5AC
102
}
330
5AC
100
AcDbXrecord
280
     1
290
     1
  0
XRECORD
  5
5AF
102
{ACAD_REACTORS
330
5AE
102
}
330
5AE
100
AcDbXrecord
280
     1
290
     1
  0
XRECORD
  5
5B1
102
{ACAD_REACTORS
330
5B0
102
}
330
5B0
100
AcDbXrecord
280
     1
290
     1
  0
XRECORD
  5
5B3
102
{ACAD_REACTORS
330
5B2
102
}
330
5B2
100
AcDbXrecord
280
     1
290
     1
  0
XRECORD
  5
5B5
102
{ACAD_REACTORS
330
5B4
102
}
330
5B4
100
AcDbXrecord
280
     1
290
     1
  0
XRECORD
  5
5B7
102
{ACAD_REACTORS
330
5B6
102
}
330
5B6
100
AcDbXrecord
280
     1
290
     1
  0
XRECORD
  5
5B9
102
{ACAD_REACTORS
330
5B8
102
}
330
5B8
100
AcDbXrecord
280
     1
290
     1
  0
XRECORD
  5
5BB
102
{ACAD_REACTORS
330
5BA
102
}
330
5BA
100
AcDbXrecord
280
     1
290
     1
  0
XRECORD
  5
5BD
102
{ACAD_REACTORS
330
5BC
102
}
330
5BC
100
AcDbXrecord
280
     1
290
     1
  0
XRECORD
  5
5BF
102
{ACAD_REACTORS
330
5BE
102
}
330
5BE
100
AcDbXrecord
280
     1
290
     1
  0
XRECORD
  5
5C1
102
{ACAD_REACTORS
330
5C0
102
}
330
5C0
100
AcDbXrecord
280
     1
290
     1
  0
XRECORD
  5
5C3
102
{ACAD_REACTORS
330
5C2
102
}
330
5C2
100
AcDbXrecord
280
     1
290
     1
  0
XRECORD
  5
5C5
102
{ACAD_REACTORS
330
5C4
102
}
330
5C4
100
AcDbXrecord
280
     1
290
     1
  0
XRECORD
  5
5C7
102
{ACAD_REACTORS
330
5C6
102
}
330
5C6
100
AcDbXrecord
280
     1
290
     1
  0
XRECORD
  5
5C9
102
{ACAD_REACTORS
330
5C8
102
}
330
5C8
100
AcDbXrecord
280
     1
290
     1
  0
XRECORD
  5
5CB
102
{ACAD_REACTORS
330
5CA
102
}
330
5CA
100
AcDbXrecord
280
     1
290
     1
  0
XRECORD
  5
5CD
102
{ACAD_REACTORS
330
5CC
102
}
330
5CC
100
AcDbXrecord
280
     1
290
     1
  0
XRECORD
  5
5CF
102
{ACAD_REACTORS
330
5CE
102
}
330
5CE
100
AcDbXrecord
280
     1
290
     1
  0
XRECORD
  5
5D1
102
{ACAD_REACTORS
330
5D0
102
}
330
5D0
100
AcDbXrecord
280
     1
290
     1
  0
XRECORD
  5
5D3
102
{ACAD_REACTORS
330
5D2
102
}
330
5D2
100
AcDbXrecord
280
     1
290
     1
  0
XRECORD
  5
5D5
102
{ACAD_REACTORS
330
5D4
102
}
330
5D4
100
AcDbXrecord
280
     1
290
     1
  0
XRECORD
  5
5D7
102
{ACAD_REACTORS
330
5D6
102
}
330
5D6
100
AcDbXrecord
280
     1
290
     1
  0
XRECORD
  5
5D9
102
{ACAD_REACTORS
330
5D8
102
}
330
5D8
100
AcDbXrecord
280
     1
290
     1
  0
XRECORD
  5
5DB
102
{ACAD_REACTORS
330
5DA
102
}
330
5DA
100
AcDbXrecord
280
     1
290
     1
  0
XRECORD
  5
5DD
102
{ACAD_REACTORS
330
5DC
102
}
330
5DC
100
AcDbXrecord
280
     1
290
     1
  0
XRECORD
  5
5DF
102
{ACAD_REACTORS
330
5DE
102
}
330
5DE
100
AcDbXrecord
280
     1
290
     1
  0
XRECORD
  5
5E1
102
{ACAD_REACTORS
330
5E0
102
}
330
5E0
100
AcDbXrecord
280
     1
290
     1
  0
XRECORD
  5
5E3
102
{ACAD_REACTORS
330
5E2
102
}
330
5E2
100
AcDbXrecord
280
     1
290
     1
  0
XRECORD
  5
5E5
102
{ACAD_REACTORS
330
5E4
102
}
330
5E4
100
AcDbXrecord
280
     1
290
     1
  0
XRECORD
  5
5E7
102
{ACAD_REACTORS
330
5E6
102
}
330
5E6
100
AcDbXrecord
280
     1
290
     1
  0
XRECORD
  5
5E9
102
{ACAD_REACTORS
330
5E8
102
}
330
5E8
100
AcDbXrecord
280
     1
290
     1
  0
XRECORD
  5
5EB
102
{ACAD_REACTORS
330
5EA
102
}
330
5EA
100
AcDbXrecord
280
     1
290
     1
  0
XRECORD
  5
5ED
102
{ACAD_REACTORS
330
5EC
102
}
330
5EC
100
AcDbXrecord
280
     1
290
     1
  0
XRECORD
  5
5EF
102
{ACAD_REACTORS
330
5EE
102
}
330
5EE
100
AcDbXrecord
280
     1
290
     1
  0
XRECORD
  5
5F1
102
{ACAD_REACTORS
330
5F0
102
}
330
5F0
100
AcDbXrecord
280
     1
290
     1
  0
LAYOUT
  5
4EE
102
{ACAD_XDICTIONARY
360
633
102
}
102
{ACAD_REACTORS
330
4EC
102
}
330
4EC
100
AcDbPlotSettings
  1

  2
DocuCentre-V C3376
  4

  6

 40
0.0
 41
0.0
 42
0.0
 43
0.0
 44
0.0
 45
0.0
 46
0.0
 47
0.0
 48
0.0
 49
0.0
140
0.0
141
0.0
142
1.0
143
1.0
 70
  1712
 72
     0
 73
     0
 74
     0
  7
monochrome.stb
 75
     0
147
1.0
148
0.0
149
0.0
100
AcDbLayout
  1
Model
 70
     1
 71
     0
 10
0.0
 20
0.0
 11
12.0
 21
9.0
 12
0.0
 22
0.0
 32
0.0
 14
0.0
 24
0.0
 34
0.0
 15
0.0
 25
0.0
 35
0.0
146
0.0
 13
0.0
 23
0.0
 33
0.0
 16
1.0
 26
0.0
 36
0.0
 17
0.0
 27
1.0
 37
0.0
 76
     0
330
1D
331
B1
  0
LAYOUT
  5
4EF
102
{ACAD_XDICTIONARY
360
635
102
}
102
{ACAD_REACTORS
330
4EC
102
}
330
4EC
100
AcDbPlotSettings
  1

  2
DocuCentre-V C3376
  4

  6

 40
0.0
 41
0.0
 42
0.0
 43
0.0
 44
0.0
 45
0.0
 46
0.0
 47
0.0
 48
0.0
 49
0.0
140
0.0
141
0.0
142
1.0
143
1.0
 70
   688
 72
     0
 73
     0
 74
     5
  7
monochrome.stb
 75
    16
147
1.0
148
0.0
149
0.0
100
AcDbLayout
  1
レイアウト1
 70
     1
 71
     1
 10
0.0
 20
0.0
 11
0.0
 21
0.0
 12
0.0
 22
0.0
 32
0.0
 14
1.000000000000000E+20
 24
1.000000000000000E+20
 34
1.000000000000000E+20
 15
-1.000000000000000E+20
 25
-1.000000000000000E+20
 35
-1.000000000000000E+20
146
0.0
 13
0.0
 23
0.0
 33
0.0
 16
1.0
 26
0.0
 36
0.0
 17
0.0
 27
1.0
 37
0.0
 76
     0
330
1B
  0
MATERIAL
  5
4AC
102
{ACAD_XDICTIONARY
360
4AD
102
}
102
{ACAD_REACTORS
330
4A3
102
}
330
4A3
100
AcDbMaterial
  1
ByBlock
 72
     0
 43
0.0208333333333333
 43
0.0
 43
0.0
 43
0.0
 43
0.0
 43
0.0208333333333333
 43
0.0
 43
0.0
 43
0.0
 43
0.0
 43
1.0
 43
0.0
 43
0.0
 43
0.0
 43
0.0
 43
1.0
 77
     0
 47
0.0208333333333333
 47
0.0
 47
0.0
 47
0.0
 47
0.0
 47
0.0208333333333333
 47
0.0
 47
0.0
 47
0.0
 47
0.0
 47
1.0
 47
0.0
 47
0.0
 47
0.0
 47
0.0
 47
1.0
171
     0
 49
0.0208333333333333
 49
0.0
 49
0.0
 49
0.0
 49
0.0
 49
0.0208333333333333
 49
0.0
 49
0.0
 49
0.0
 49
0.0
 49
1.0
 49
0.0
 49
0.0
 49
0.0
 49
0.0
 49
1.0
175
     0
142
0.0208333333333333
142
0.0
142
0.0
142
0.0
142
0.0
142
0.0208333333333333
142
0.0
142
0.0
142
0.0
142
0.0
142
1.0
142
0.0
142
0.0
142
0.0
142
0.0
142
1.0
179
     0
144
0.0208333333333333
144
0.0
144
0.0
144
0.0
144
0.0
144
0.0208333333333333
144
0.0
144
0.0
144
0.0
144
0.0
144
1.0
144
0.0
144
0.0
144
0.0
144
0.0
144
1.0
147
0.0208333333333333
147
0.0
147
0.0
147
0.0
147
0.0
147
0.0208333333333333
147
0.0
147
0.0
147
0.0
147
0.0
147
1.0
147
0.0
147
0.0
147
0.0
147
0.0
147
1.0
  0
MATERIAL
  5
4A4
102
{ACAD_XDICTIONARY
360
4A5
102
}
102
{ACAD_REACTORS
330
4A3
102
}
330
4A3
100
AcDbMaterial
  1
ByLayer
 72
     0
 43
0.0208333333333333
 43
0.0
 43
0.0
 43
0.0
 43
0.0
 43
0.0208333333333333
 43
0.0
 43
0.0
 43
0.0
 43
0.0
 43
1.0
 43
0.0
 43
0.0
 43
0.0
 43
0.0
 43
1.0
 77
     0
 47
0.0208333333333333
 47
0.0
 47
0.0
 47
0.0
 47
0.0
 47
0.0208333333333333
 47
0.0
 47
0.0
 47
0.0
 47
0.0
 47
1.0
 47
0.0
 47
0.0
 47
0.0
 47
0.0
 47
1.0
171
     0
 49
0.0208333333333333
 49
0.0
 49
0.0
 49
0.0
 49
0.0
 49
0.0208333333333333
 49
0.0
 49
0.0
 49
0.0
 49
0.0
 49
1.0
 49
0.0
 49
0.0
 49
0.0
 49
0.0
 49
1.0
175
     0
142
0.0208333333333333
142
0.0
142
0.0
142
0.0
142
0.0
142
0.0208333333333333
142
0.0
142
0.0
142
0.0
142
0.0
142
1.0
142
0.0
142
0.0
142
0.0
142
0.0
142
1.0
179
     0
144
0.0208333333333333
144
0.0
144
0.0
144
0.0
144
0.0
144
0.0208333333333333
144
0.0
144
0.0
144
0.0
144
0.0
144
1.0
144
0.0
144
0.0
144
0.0
144
0.0
144
1.0
147
0.0208333333333333
147
0.0
147
0.0
147
0.0
147
0.0
147
0.0208333333333333
147
0.0
147
0.0
147
0.0
147
0.0
147
1.0
147
0.0
147
0.0
147
0.0
147
0.0
147
1.0
  0
MATERIAL
  5
4B4
102
{ACAD_XDICTIONARY
360
4B5
102
}
102
{ACAD_REACTORS
330
4A3
102
}
330
4A3
100
AcDbMaterial
  1
Global
 72
     0
 43
0.0208333333333333
 43
0.0
 43
0.0
 43
0.0
 43
0.0
 43
0.0208333333333333
 43
0.0
 43
0.0
 43
0.0
 43
0.0
 43
1.0
 43
0.0
 43
0.0
 43
0.0
 43
0.0
 43
1.0
 77
     0
 47
0.0208333333333333
 47
0.0
 47
0.0
 47
0.0
 47
0.0
 47
0.0208333333333333
 47
0.0
 47
0.0
 47
0.0
 47
0.0
 47
1.0
 47
0.0
 47
0.0
 47
0.0
 47
0.0
 47
1.0
171
     0
 49
0.0208333333333333
 49
0.0
 49
0.0
 49
0.0
 49
0.0
 49
0.0208333333333333
 49
0.0
 49
0.0
 49
0.0
 49
0.0
 49
1.0
 49
0.0
 49
0.0
 49
0.0
 49
0.0
 49
1.0
175
     0
142
0.0208333333333333
142
0.0
142
0.0
142
0.0
142
0.0
142
0.0208333333333333
142
0.0
142
0.0
142
0.0
142
0.0
142
1.0
142
0.0
142
0.0
142
0.0
142
0.0
142
1.0
179
     0
144
0.0208333333333333
144
0.0
144
0.0
144
0.0
144
0.0
144
0.0208333333333333
144
0.0
144
0.0
144
0.0
144
0.0
144
1.0
144
0.0
144
0.0
144
0.0
144
0.0
144
1.0
147
0.0208333333333333
147
0.0
147
0.0
147
0.0
147
0.0
147
0.0208333333333333
147
0.0
147
0.0
147
0.0
147
0.0
147
1.0
147
0.0
147
0.0
147
0.0
147
0.0
147
1.0
  0
MLEADERSTYLE
  5
4EA
102
{ACAD_REACTORS
330
4E9
102
}
330
4E9
100
AcDbMLeaderStyle
170
     2
171
     1
172
     0
 90
        2
 40
0.0
 41
0.0
173
     1
 91
-1056964608
340
14
 92
       -2
290
     1
 42
0.09
291
     1
 43
0.36
  3
Standard
 44
0.18
300

342
11
174
     1
178
     6
175
     1
176
     0
 93
-1056964608
 45
0.18
292
     0
297
     0
 46
0.18
 94
-1056964608
 47
1.0
 49
1.0
140
1.0
293
     1
141
0.0
294
     1
177
     0
142
1.0
295
     0
296
     0
143
0.125
1001
ACAD_MLEADERVER
1070
     2
  0
MLINESTYLE
  5
18
102
{ACAD_REACTORS
330
17
102
}
330
17
100
AcDbMlineStyle
  2
STANDARD
 70
     0
  3

 62
   256
 51
90.0
 52
90.0
 71
     2
 49
0.5
 62
   256
  6
BYLAYER
 49
-0.5
 62
   256
  6
BYLAYER
  0
ACDBPLACEHOLDER
  5
4A2
102
{ACAD_REACTORS
330
4A1
102
}
330
4A1
  0
ACDBPLACEHOLDER
  5
4EB
102
{ACAD_REACTORS
330
4A1
102
}
330
4A1
  0
SCALE
  5
4D8
102
{ACAD_REACTORS
330
457
102
}
330
457
100
AcDbScale
 70
     0
300
1:1
140
1.0
141
1.0
290
     1
  0
SCALE
  5
4D9
102
{ACAD_REACTORS
330
457
102
}
330
457
100
AcDbScale
 70
     0
300
1/128" = 1'-0"
140
0.0078125
141
12.0
290
     0
  0
SCALE
  5
4DA
102
{ACAD_REACTORS
330
457
102
}
330
457
100
AcDbScale
 70
     0
300
1/64" = 1'-0"
140
0.015625
141
12.0
290
     0
  0
SCALE
  5
4DB
102
{ACAD_REACTORS
330
457
102
}
330
457
100
AcDbScale
 70
     0
300
1/32" = 1'-0"
140
0.03125
141
12.0
290
     0
  0
SCALE
  5
4DC
102
{ACAD_REACTORS
330
457
102
}
330
457
100
AcDbScale
 70
     0
300
1/16" = 1'-0"
140
0.0625
141
12.0
290
     0
  0
SCALE
  5
4DD
102
{ACAD_REACTORS
330
457
102
}
330
457
100
AcDbScale
 70
     0
300
3/32" = 1'-0"
140
0.09375
141
12.0
290
     0
  0
SCALE
  5
4DE
102
{ACAD_REACTORS
330
457
102
}
330
457
100
AcDbScale
 70
     0
300
1/8" = 1'-0"
140
0.125
141
12.0
290
     0
  0
SCALE
  5
4DF
102
{ACAD_REACTORS
330
457
102
}
330
457
100
AcDbScale
 70
     0
300
3/16" = 1'-0"
140
0.1875
141
12.0
290
     0
  0
SCALE
  5
4E0
102
{ACAD_REACTORS
330
457
102
}
330
457
100
AcDbScale
 70
     0
300
1/4" = 1'-0"
140
0.25
141
12.0
290
     0
  0
SCALE
  5
4E1
102
{ACAD_REACTORS
330
457
102
}
330
457
100
AcDbScale
 70
     0
300
3/8" = 1'-0"
140
0.375
141
12.0
290
     0
  0
SCALE
  5
4E2
102
{ACAD_REACTORS
330
457
102
}
330
457
100
AcDbScale
 70
     0
300
1/2" = 1'-0"
140
0.5
141
12.0
290
     0
  0
SCALE
  5
4E3
102
{ACAD_REACTORS
330
457
102
}
330
457
100
AcDbScale
 70
     0
300
3/4" = 1'-0"
140
0.75
141
12.0
290
     0
  0
SCALE
  5
4E4
102
{ACAD_REACTORS
330
457
102
}
330
457
100
AcDbScale
 70
     0
300
1" = 1'-0"
140
1.0
141
12.0
290
     0
  0
SCALE
  5
4E5
102
{ACAD_REACTORS
330
457
102
}
330
457
100
AcDbScale
 70
     0
300
1-1/2" = 1'-0"
140
1.5
141
12.0
290
     0
  0
SCALE
  5
4E6
102
{ACAD_REACTORS
330
457
102
}
330
457
100
AcDbScale
 70
     0
300
3" = 1'-0"
140
3.0
141
12.0
290
     0
  0
SCALE
  5
4E7
102
{ACAD_REACTORS
330
457
102
}
330
457
100
AcDbScale
 70
     0
300
6" = 1'-0"
140
6.0
141
12.0
290
     0
  0
SCALE
  5
4E8
102
{ACAD_REACTORS
330
457
102
}
330
457
100
AcDbScale
 70
     0
300
1'-0" = 1'-0"
140
12.0
141
12.0
290
     0
  0
TABLESTYLE
  5
4D7
102
{ACAD_XDICTIONARY
360
5FA
102
}
102
{ACAD_REACTORS
330
4D6
102
}
330
4D6
100
AcDbTableStyle
  3
Standard
 70
     0
 71
     0
 40
0.06
 41
0.06
280
     0
281
     0
  7
STANDARD
140
0.18
170
     2
 62
     0
 63
     7
283
     0
274
    -2
284
     1
 64
     0
275
    -2
285
     1
 65
     0
276
    -2
286
     1
 66
     0
277
    -2
287
     1
 67
     0
278
    -2
288
     1
 68
     0
279
    -2
289
     1
 69
     0
  7
STANDARD
140
0.25
170
     5
 62
     0
 63
     7
283
     0
274
    -2
284
     1
 64
     0
275
    -2
285
     1
 65
     0
276
    -2
286
     1
 66
     0
277
    -2
287
     1
 67
     0
278
    -2
288
     1
 68
     0
279
    -2
289
     1
 69
     0
  7
STANDARD
140
0.18
170
     5
 62
     0
 63
     7
283
     0
274
    -2
284
     1
 64
     0
275
    -2
285
     1
 65
     0
276
    -2
286
     1
 66
     0
277
    -2
287
     1
 67
     0
278
    -2
288
     1
 68
     0
279
    -2
289
     1
 69
     0
  0
VISUALSTYLE
  5
4C2
102
{ACAD_XDICTIONARY
360
60B
102
}
102
{ACAD_REACTORS
330
4BC
102
}
330
4BC
100
AcDbVisualStyle
  2
2dWireframe
 70
     4
 71
     0
 72
     2
 73
     0
 90
        0
 40
-0.6
 41
-30.0
 62
     5
 63
     7
 74
     1
 91
        4
 64
     7
 65
   257
 75
     1
175
     1
 42
1.0
 92
        0
 66
   257
 43
1.0
 76
     1
 77
     6
 78
     2
 67
     7
 79
     5
170
     0
171
     0
290
     0
174
     0
 93
        1
 44
0.0
173
     0
291
     0
 45
0.0
1001
ACAD
1000
AcDbSavedByObjectVersion
1070
     0
  0
VISUALSTYLE
  5
4C1
102
{ACAD_XDICTIONARY
360
609
102
}
102
{ACAD_REACTORS
330
4BC
102
}
330
4BC
100
AcDbVisualStyle
  2
Basic
 70
     7
 71
     1
 72
     0
 73
     1
 90
        0
 40
-0.6
 41
-30.0
 62
     5
 63
     7
 74
     0
 91
        4
 64
     7
 65
   257
 75
     1
175
     1
 42
1.0
 92
        8
 66
     7
 43
1.0
 76
     1
 77
     6
 78
     2
 67
     7
 79
     5
170
     0
171
     0
290
     0
174
     0
 93
        1
 44
0.0
173
     0
291
     1
 45
0.0
1001
ACAD
1000
AcDbSavedByObjectVersion
1070
     0
  0
VISUALSTYLE
  5
4C8
102
{ACAD_XDICTIONARY
360
617
102
}
102
{ACAD_REACTORS
330
4BC
102
}
330
4BC
100
AcDbVisualStyle
  2
Brighten
 70
    12
 71
     2
 72
     2
 73
     0
 90
        0
 40
-0.6
 41
-30.0
 62
     5
 63
     7
 74
     1
 91
        4
 64
     7
 65
   257
 75
     1
175
     1
 42
1.0
 92
        8
 66
     7
 43
1.0
 76
     1
 77
     6
 78
     2
 67
     7
 79
     5
170
     0
171
     0
290
     0
174
     0
 93
        1
 44
50.0
173
     0
291
     1
 45
0.0
1001
ACAD
1000
AcDbSavedByObjectVersion
1070
     0
  0
VISUALSTYLE
  5
4CC
102
{ACAD_XDICTIONARY
360
61F
102
}
102
{ACAD_REACTORS
330
4BC
102
}
330
4BC
100
AcDbVisualStyle
  2
ColorChange
 70
    16
 71
     2
 72
     2
 73
     3
 90
        0
 40
-0.6
 41
-30.0
 62
     5
 63
     8
 74
     1
 91
        4
 64
     7
 65
   257
 75
     1
175
     1
 42
1.0
 92
        8
 66
     8
 43
1.0
 76
     1
 77
     6
 78
     2
 67
     7
 79
     5
170
     0
171
     0
290
     0
174
     0
 93
        1
 44
0.0
173
     0
291
     1
 45
0.0
1001
ACAD
1000
AcDbSavedByObjectVersion
1070
     0
  0
VISUALSTYLE
  5
4C5
102
{ACAD_XDICTIONARY
360
611
102
}
102
{ACAD_REACTORS
330
4BC
102
}
330
4BC
100
AcDbVisualStyle
  2
Conceptual
 70
     9
 71
     3
 72
     2
 73
     0
 90
        0
 40
-0.6
 41
-30.0
 62
     5
 63
     7
 74
     2
 91
        2
 64
     7
 65
   257
 75
     1
175
     1
 42
179.0
 92
        8
 66
     7
 43
1.0
 76
     1
 77
     6
 78
     2
 67
     7
 79
     3
170
     0
171
     0
290
     0
174
     0
 93
        1
 44
0.0
173
     0
291
     0
 45
0.0
1001
ACAD
1000
AcDbSavedByObjectVersion
1070
     0
  0
VISUALSTYLE
  5
4C7
102
{ACAD_XDICTIONARY
360
615
102
}
102
{ACAD_REACTORS
330
4BC
102
}
330
4BC
100
AcDbVisualStyle
  2
Dim
 70
    11
 71
     2
 72
     2
 73
     0
 90
        0
 40
-0.6
 41
-30.0
 62
     5
 63
     7
 74
     1
 91
        4
 64
     7
 65
   257
 75
     1
175
     1
 42
1.0
 92
        8
 66
     7
 43
1.0
 76
     1
 77
     6
 78
     2
 67
     7
 79
     5
170
     0
171
     0
290
     0
174
     0
 93
        1
 44
-50.0
173
     0
291
     1
 45
0.0
1001
ACAD
1000
AcDbSavedByObjectVersion
1070
     0
  0
VISUALSTYLE
  5
4D4
102
{ACAD_XDICTIONARY
360
62F
102
}
102
{ACAD_REACTORS
330
4BC
102
}
330
4BC
100
AcDbVisualStyle
  2
EdgeColorOff
 70
    22
 71
     2
 72
     2
 73
     0
 90
        0
 40
-0.6
 41
-30.0
 62
     5
 63
     7
 74
     1
 91
        4
 64
     7
 65
   257
 75
     1
175
     1
 42
1.0
 92
        8
 66
     7
 43
1.0
 76
     1
 77
     6
 78
     2
 67
     7
 79
     5
170
     0
171
     0
290
     0
174
     0
 93
        1
 44
0.0
173
     0
291
     1
 45
0.0
1001
ACAD
1000
AcDbSavedByObjectVersion
1070
     0
  0
VISUALSTYLE
  5
4CB
102
{ACAD_XDICTIONARY
360
61D
102
}
102
{ACAD_REACTORS
330
4BC
102
}
330
4BC
100
AcDbVisualStyle
  2
Facepattern
 70
    15
 71
     2
 72
     2
 73
     0
 90
        0
 40
-0.6
 41
-30.0
 62
     5
 63
     7
 74
     1
 91
        4
 64
     7
 65
   257
 75
     1
175
     1
 42
1.0
 92
        8
 66
     7
 43
1.0
 76
     1
 77
     6
 78
     2
 67
     7
 79
     5
170
     0
171
     0
290
     0
174
     0
 93
        1
 44
0.0
173
     0
291
     1
 45
0.0
1001
ACAD
1000
AcDbSavedByObjectVersion
1070
     0
  0
VISUALSTYLE
  5
4BD
102
{ACAD_XDICTIONARY
360
601
102
}
102
{ACAD_REACTORS
330
4BC
102
}
330
4BC
100
AcDbVisualStyle
  2
Flat
 70
     0
 71
     2
 72
     1
 73
     1
 90
        2
 40
-0.6
 41
30.0
 62
     5
 63
     7
 74
     0
 91
        0
 64
     7
 65
   257
 75
     1
175
     1
 42
1.0
 92
        8
 66
     7
 43
1.0
 76
     1
 77
     6
 78
     2
 67
     7
 79
     5
170
     0
171
     0
290
     0
174
     0
 93
       13
 44
0.0
173
     0
291
     1
 45
0.0
1001
ACAD
1000
AcDbSavedByObjectVersion
1070
     0
  0
VISUALSTYLE
  5
4BE
102
{ACAD_XDICTIONARY
360
603
102
}
102
{ACAD_REACTORS
330
4BC
102
}
330
4BC
100
AcDbVisualStyle
  2
FlatWithEdges
 70
     1
 71
     2
 72
     1
 73
     1
 90
        2
 40
-0.6
 41
30.0
 62
     5
 63
     7
 74
     1
 91
        0
 64
     7
 65
   257
 75
     1
175
     1
 42
1.0
 92
        0
 66
   257
 43
1.0
 76
     1
 77
     6
 78
     2
 67
     7
 79
     5
170
     0
171
     0
290
     0
174
     0
 93
       13
 44
0.0
173
     0
291
     1
 45
0.0
1001
ACAD
1000
AcDbSavedByObjectVersion
1070
     0
  0
VISUALSTYLE
  5
4BF
102
{ACAD_XDICTIONARY
360
605
102
}
102
{ACAD_REACTORS
330
4BC
102
}
330
4BC
100
AcDbVisualStyle
  2
Gouraud
 70
     2
 71
     2
 72
     2
 73
     1
 90
        2
 40
-0.6
 41
30.0
 62
     5
 63
     7
 74
     0
 91
        0
 64
     7
 65
   257
 75
     1
175
     1
 42
1.0
 92
        0
 66
     7
 43
1.0
 76
     1
 77
     6
 78
     2
 67
     7
 79
     5
170
     0
171
     0
290
     0
174
     0
 93
       13
 44
0.0
173
     0
291
     1
 45
0.0
1001
ACAD
1000
AcDbSavedByObjectVersion
1070
     0
  0
VISUALSTYLE
  5
4C0
102
{ACAD_XDICTIONARY
360
607
102
}
102
{ACAD_REACTORS
330
4BC
102
}
330
4BC
100
AcDbVisualStyle
  2
GouraudWithEdges
 70
     3
 71
     2
 72
     2
 73
     1
 90
        2
 40
-0.6
 41
30.0
 62
     5
 63
     7
 74
     1
 91
        0
 64
     7
 65
   257
 75
     1
175
     1
 42
1.0
 92
        0
 66
   257
 43
1.0
 76
     1
 77
     6
 78
     2
 67
     7
 79
     5
170
     0
171
     0
290
     0
174
     0
 93
       13
 44
0.0
173
     0
291
     1
 45
0.0
1001
ACAD
1000
AcDbSavedByObjectVersion
1070
     0
  0
VISUALSTYLE
  5
4C4
102
{ACAD_XDICTIONARY
360
60F
102
}
102
{ACAD_REACTORS
330
4BC
102
}
330
4BC
100
AcDbVisualStyle
  2
Hidden
 70
     6
 71
     1
 72
     2
 73
     2
 90
        0
 40
-0.6
 41
-30.0
 62
     5
 63
     7
 74
     2
 91
        2
 64
     7
 65
   257
 75
     2
175
     1
 42
40.0
 92
        0
 66
   257
 43
1.0
 76
     1
 77
     6
 78
     2
 67
     7
 79
     3
170
     0
171
     0
290
     0
174
     0
 93
        1
 44
0.0
173
     0
291
     0
 45
0.0
1001
ACAD
1000
AcDbSavedByObjectVersion
1070
     0
  0
VISUALSTYLE
  5
4D2
102
{ACAD_XDICTIONARY
360
62B
102
}
102
{ACAD_REACTORS
330
4BC
102
}
330
4BC
100
AcDbVisualStyle
  2
JitterOff
 70
    20
 71
     2
 72
     2
 73
     0
 90
        0
 40
-0.6
 41
-30.0
 62
     5
 63
     7
 74
     1
 91
        4
 64
     7
 65
   257
 75
     1
175
     1
 42
1.0
 92
       10
 66
     7
 43
1.0
 76
     1
 77
     6
 78
     2
 67
     7
 79
     5
170
     0
171
     0
290
     0
174
     0
 93
        1
 44
0.0
173
     0
291
     1
 45
0.0
1001
ACAD
1000
AcDbSavedByObjectVersion
1070
     0
  0
VISUALSTYLE
  5
4CA
102
{ACAD_XDICTIONARY
360
61B
102
}
102
{ACAD_REACTORS
330
4BC
102
}
330
4BC
100
AcDbVisualStyle
  2
Linepattern
 70
    14
 71
     2
 72
     2
 73
     0
 90
        0
 40
-0.6
 41
-30.0
 62
     5
 63
     7
 74
     1
 91
        4
 64
     7
 65
   257
 75
     7
175
     7
 42
1.0
 92
        8
 66
     7
 43
1.0
 76
     1
 77
     6
 78
     2
 67
     7
 79
     5
170
     0
171
     0
290
     0
174
     0
 93
        1
 44
0.0
173
     0
291
     1
 45
0.0
1001
ACAD
1000
AcDbSavedByObjectVersion
1070
     0
  0
VISUALSTYLE
  5
4D3
102
{ACAD_XDICTIONARY
360
62D
102
}
102
{ACAD_REACTORS
330
4BC
102
}
330
4BC
100
AcDbVisualStyle
  2
OverhangOff
 70
    21
 71
     2
 72
     2
 73
     0
 90
        0
 40
-0.6
 41
-30.0
 62
     5
 63
     7
 74
     1
 91
        4
 64
     7
 65
   257
 75
     1
175
     1
 42
1.0
 92
        9
 66
     7
 43
1.0
 76
     1
 77
     6
 78
     2
 67
     7
 79
     5
170
     0
171
     0
290
     0
174
     0
 93
        1
 44
0.0
173
     0
291
     1
 45
0.0
1001
ACAD
1000
AcDbSavedByObjectVersion
1070
     0
  0
VISUALSTYLE
  5
4C6
102
{ACAD_XDICTIONARY
360
613
102
}
102
{ACAD_REACTORS
330
4BC
102
}
330
4BC
100
AcDbVisualStyle
  2
Realistic
 70
     8
 71
     2
 72
     3
 73
     0
 90
        2
 40
-0.6
 41
30.0
 62
     5
 63
     7
 74
     0
 91
        0
 64
     7
 65
   257
 75
     1
175
     1
 42
1.0
 92
        8
 66
   257
 43
1.0
 76
     1
 77
     6
 78
     2
 67
     7
 79
     3
170
     0
171
     0
290
     0
174
     0
 93
       13
 44
0.0
173
     0
291
     0
 45
0.0
1001
ACAD
1000
AcDbSavedByObjectVersion
1070
     0
  0
VISUALSTYLE
  5
4D1
102
{ACAD_XDICTIONARY
360
629
102
}
102
{ACAD_REACTORS
330
4BC
102
}
330
4BC
100
AcDbVisualStyle
  2
Shaded
 70
    27
 71
     2
 72
     2
 73
     1
 90
        2
 40
-0.6
 41
30.0
 62
     5
 63
     7
 74
     0
 91
        4
 64
     7
 65
   257
 75
     1
175
     1
 42
1.0
 92
        8
 66
   257
 43
1.0
 76
     1
 77
     6
 78
     2
 67
     8
 79
     3
170
     0
171
     0
290
     0
174
     0
 93
        5
 44
0.0
173
     0
291
     0
 45
0.0
1001
ACAD
1000
AcDbSavedByObjectVersion
1070
     0
  0
VISUALSTYLE
  5
4D0
102
{ACAD_XDICTIONARY
360
627
102
}
102
{ACAD_REACTORS
330
4BC
102
}
330
4BC
100
AcDbVisualStyle
  2
Shaded with edges
 70
    26
 71
     2
 72
     2
 73
     1
 90
        2
 40
-0.6
 41
30.0
 62
     5
 63
     7
 74
     1
 91
       10
 64
     7
 65
   257
 75
     2
175
     1
 42
1.0
 92
        8
 66
   257
 43
1.0
 76
     1
 77
     6
 78
     2
 67
     7
 79
     3
170
     0
171
     0
290
     0
174
     0
 93
        5
 44
0.0
173
     0
291
     0
 45
0.0
1001
ACAD
1000
AcDbSavedByObjectVersion
1070
     0
  0
VISUALSTYLE
  5
4CD
102
{ACAD_XDICTIONARY
360
621
102
}
102
{ACAD_REACTORS
330
4BC
102
}
330
4BC
100
AcDbVisualStyle
  2
Shades of Gray
 70
    23
 71
     2
 72
     2
 73
     3
 90
        0
 40
-0.6
 41
-30.0
 62
     5
 63
     7
 74
     2
 91
        2
 64
     7
 65
     7
 75
     1
175
     1
 42
40.0
 92
        8
 66
     7
 43
1.0
 76
     1
 77
     6
 78
     2
 67
     7
 79
     3
170
     0
171
     0
290
     0
174
     0
 93
        1
 44
0.0
173
     0
291
     0
 45
0.0
1001
ACAD
1000
AcDbSavedByObjectVersion
1070
     0
  0
VISUALSTYLE
  5
4CE
102
{ACAD_XDICTIONARY
360
623
102
}
102
{ACAD_REACTORS
330
4BC
102
}
330
4BC
100
AcDbVisualStyle
  2
Sketchy
 70
    24
 71
     1
 72
     2
 73
     2
 90
        0
 40
-0.6
 41
-30.0
 62
     5
 63
     7
 74
     2
 91
        2
 64
     7
 65
     7
 75
     1
175
     1
 42
40.0
 92
       11
 66
     7
 43
1.0
 76
     1
 77
     6
 78
     2
 67
     7
 79
     6
170
     0
171
     0
290
     0
174
     0
 93
        1
 44
0.0
173
     0
291
     0
 45
0.0
1001
ACAD
1000
AcDbSavedByObjectVersion
1070
     0
  0
VISUALSTYLE
  5
4C9
102
{ACAD_XDICTIONARY
360
619
102
}
102
{ACAD_REACTORS
330
4BC
102
}
330
4BC
100
AcDbVisualStyle
  2
Thicken
 70
    13
 71
     2
 72
     2
 73
     0
 90
        0
 40
-0.6
 41
-30.0
 62
     5
 63
     7
 74
     1
 91
        4
 64
     7
 65
   257
 75
     1
175
     1
 42
1.0
 92
       12
 66
     7
 43
1.0
 76
     1
 77
     6
 78
     2
 67
     7
 79
     5
170
     0
171
     0
290
     0
174
     0
 93
        1
 44
0.0
173
     0
291
     1
 45
0.0
1001
ACAD
1000
AcDbSavedByObjectVersion
1070
     0
  0
VISUALSTYLE
  5
4C3
102
{ACAD_XDICTIONARY
360
60D
102
}
102
{ACAD_REACTORS
330
4BC
102
}
330
4BC
100
AcDbVisualStyle
  2
Wireframe
 70
     5
 71
     0
 72
     2
 73
     0
 90
        0
 40
-0.6
 41
-30.0
 62
     5
 63
     7
 74
     1
 91
        4
 64
     7
 65
   257
 75
     1
175
     1
 42
1.0
 92
        0
 66
   257
 43
1.0
 76
     1
 77
     6
 78
     2
 67
     7
 79
     3
170
     0
171
     0
290
     0
174
     0
 93
        1
 44
0.0
173
     0
291
     0
 45
0.0
1001
ACAD
1000
AcDbSavedByObjectVersion
1070
     0
  0
VISUALSTYLE
  5
4CF
102
{ACAD_XDICTIONARY
360
625
102
}
102
{ACAD_REACTORS
330
4BC
102
}
330
4BC
100
AcDbVisualStyle
  2
X-Ray
 70
    25
 71
     2
 72
     2
 73
     1
 90
        1
 40
0.5
 41
-30.0
 62
     5
 63
     7
 74
     1
 91
        0
 64
     7
 65
   257
 75
     1
175
     1
 42
1.0
 92
        8
 66
     7
 43
1.0
 76
     1
 77
     6
 78
     2
 67
     7
 79
     3
170
     0
171
     0
290
     0
174
     0
 93
       13
 44
0.0
173
     0
291
     0
 45
0.0
1001
ACAD
1000
AcDbSavedByObjectVersion
1070
     0
  0
DICTIONARYVAR
  5
5F5
102
{ACAD_REACTORS
330
5F2
102
}
330
5F2
100
DictionaryVariables
280
     0
  1
1:1
  0
DICTIONARYVAR
  5
5F4
102
{ACAD_REACTORS
330
5F2
102
}
330
5F2
100
DictionaryVariables
280
     0
  1
STANDARD
  0
DICTIONARYVAR
  5
5F3
102
{ACAD_REACTORS
330
5F2
102
}
330
5F2
100
DictionaryVariables
280
     0
  1
STANDARD
  0
DICTIONARYVAR
  5
5F8
102
{ACAD_REACTORS
330
5F2
102
}
330
5F2
100
DictionaryVariables
280
     0
  1
1
  0
DICTIONARYVAR
  5
5F7
102
{ACAD_REACTORS
330
5F2
102
}
330
5F2
100
DictionaryVariables
280
     0
  1
0
  0
DICTIONARYVAR
  5
5F6
102
{ACAD_REACTORS
330
5F2
102
}
330
5F2
100
DictionaryVariables
280
     0
  1
127
  0
DICTIONARYVAR
  5
5F9
102
{ACAD_REACTORS
330
5F2
102
}
330
5F2
100
DictionaryVariables
280
     0
  1
2
  0
DICTIONARY
  5
633
330
4EE
100
AcDbDictionary
280
     1
281
     1
  3
ACAD_XREC_ROUNDTRIP
360
634
  0
DICTIONARY
  5
635
330
4EF
100
AcDbDictionary
280
     1
281
     1
  3
ACAD_XREC_ROUNDTRIP
360
636
  0
DICTIONARY
  5
4AD
330
4AC
100
AcDbDictionary
280
     1
281
     1
  3
ACAD_XREC_ROUNDTRIP
360
5FF
  3
BUMPTILE
360
4AF
  3
DIFFUSETILE
360
4AE
  3
OPACITYTILE
360
4B2
  3
REFLECTIONTILE
360
4B1
  3
REFRACTIONTILE
360
4B3
  3
SPECULARTILE
360
4B0
  0
DICTIONARY
  5
4A5
330
4A4
100
AcDbDictionary
280
     1
281
     1
  3
ACAD_XREC_ROUNDTRIP
360
5FE
  3
BUMPTILE
360
4A7
  3
DIFFUSETILE
360
4A6
  3
OPACITYTILE
360
4AA
  3
REFLECTIONTILE
360
4A9
  3
REFRACTIONTILE
360
4AB
  3
SPECULARTILE
360
4A8
  0
DICTIONARY
  5
4B5
330
4B4
100
AcDbDictionary
280
     1
281
     1
  3
ACAD_XREC_ROUNDTRIP
360
600
  3
BUMPTILE
360
4B7
  3
DIFFUSETILE
360
4B6
  3
OPACITYTILE
360
4BA
  3
REFLECTIONTILE
360
4B9
  3
REFRACTIONTILE
360
4BB
  3
SPECULARTILE
360
4B8
  0
DICTIONARY
  5
5FA
330
4D7
100
AcDbDictionary
280
     1
281
     1
  3
ACAD_ROUNDTRIP_2008_TABLESTYLE_CELLSTYLEMAP
360
5FB
  3
ACAD_XREC_ROUNDTRIP
360
631
  0
DICTIONARY
  5
60B
330
4C2
100
AcDbDictionary
280
     1
281
     1
  3
ACAD_XREC_ROUNDTRIP
360
60C
  0
DICTIONARY
  5
609
330
4C1
100
AcDbDictionary
280
     1
281
     1
  3
ACAD_XREC_ROUNDTRIP
360
60A
  0
DICTIONARY
  5
617
330
4C8
100
AcDbDictionary
280
     1
281
     1
  3
ACAD_XREC_ROUNDTRIP
360
618
  0
DICTIONARY
  5
61F
330
4CC
100
AcDbDictionary
280
     1
281
     1
  3
ACAD_XREC_ROUNDTRIP
360
620
  0
DICTIONARY
  5
611
330
4C5
100
AcDbDictionary
280
     1
281
     1
  3
ACAD_XREC_ROUNDTRIP
360
612
  0
DICTIONARY
  5
615
330
4C7
100
AcDbDictionary
280
     1
281
     1
  3
ACAD_XREC_ROUNDTRIP
360
616
  0
DICTIONARY
  5
62F
330
4D4
100
AcDbDictionary
280
     1
281
     1
  3
ACAD_XREC_ROUNDTRIP
360
630
  0
DICTIONARY
  5
61D
330
4CB
100
AcDbDictionary
280
     1
281
     1
  3
ACAD_XREC_ROUNDTRIP
360
61E
  0
DICTIONARY
  5
601
330
4BD
100
AcDbDictionary
280
     1
281
     1
  3
ACAD_XREC_ROUNDTRIP
360
602
  0
DICTIONARY
  5
603
330
4BE
100
AcDbDictionary
280
     1
281
     1
  3
ACAD_XREC_ROUNDTRIP
360
604
  0
DICTIONARY
  5
605
330
4BF
100
AcDbDictionary
280
     1
281
     1
  3
ACAD_XREC_ROUNDTRIP
360
606
  0
DICTIONARY
  5
607
330
4C0
100
AcDbDictionary
280
     1
281
     1
  3
ACAD_XREC_ROUNDTRIP
360
608
  0
DICTIONARY
  5
60F
330
4C4
100
AcDbDictionary
280
     1
281
     1
  3
ACAD_XREC_ROUNDTRIP
360
610
  0
DICTIONARY
  5
62B
330
4D2
100
AcDbDictionary
280
     1
281
     1
  3
ACAD_XREC_ROUNDTRIP
360
62C
  0
DICTIONARY
  5
61B
330
4CA
100
AcDbDictionary
280
     1
281
     1
  3
ACAD_XREC_ROUNDTRIP
360
61C
  0
DICTIONARY
  5
62D
330
4D3
100
AcDbDictionary
280
     1
281
     1
  3
ACAD_XREC_ROUNDTRIP
360
62E
  0
DICTIONARY
  5
613
330
4C6
100
AcDbDictionary
280
     1
281
     1
  3
ACAD_XREC_ROUNDTRIP
360
614
  0
DICTIONARY
  5
629
330
4D1
100
AcDbDictionary
280
     1
281
     1
  3
ACAD_XREC_ROUNDTRIP
360
62A
  0
DICTIONARY
  5
627
330
4D0
100
AcDbDictionary
280
     1
281
     1
  3
ACAD_XREC_ROUNDTRIP
360
628
  0
DICTIONARY
  5
621
330
4CD
100
AcDbDictionary
280
     1
281
     1
  3
ACAD_XREC_ROUNDTRIP
360
622
  0
DICTIONARY
  5
623
330
4CE
100
AcDbDictionary
280
     1
281
     1
  3
ACAD_XREC_ROUNDTRIP
360
624
  0
DICTIONARY
  5
619
330
4C9
100
AcDbDictionary
280
     1
281
     1
  3
ACAD_XREC_ROUNDTRIP
360
61A
  0
DICTIONARY
  5
60D
330
4C3
100
AcDbDictionary
280
     1
281
     1
  3
ACAD_XREC_ROUNDTRIP
360
60E
  0
DICTIONARY
  5
625
330
4CF
100
AcDbDictionary
280
     1
281
     1
  3
ACAD_XREC_ROUNDTRIP
360
626
  0
XRECORD
  5
634
102
{ACAD_REACTORS
330
633
102
}
330
633
100
AcDbXrecord
280
     1
102
SHADEPLOT
 70
     0
102
SHADEPLOTRESLEVEL
 70
     2
102
SHADEPLOTCUSTOMDPI
 70
   300
  0
XRECORD
  5
636
102
{ACAD_REACTORS
330
635
102
}
330
635
100
AcDbXrecord
280
     1
102
SHADEPLOT
 70
     0
102
SHADEPLOTRESLEVEL
 70
     2
102
SHADEPLOTCUSTOMDPI
 70
   300
  0
XRECORD
  5
5FF
102
{ACAD_REACTORS
330
4AD
102
}
330
4AD
100
AcDbXrecord
280
     1
102
MATERIAL
148
0.0
149
0.0
149
0.0
 93
        0
 94
      127
282
     0
 72
     0
 77
     0
171
     0
175
     0
179
     0
273
     0
  0
XRECORD
  5
4AF
102
{ACAD_REACTORS
330
4AD
102
}
330
4AD
100
AcDbXrecord
280
     1
270
     1
271
     1
  0
XRECORD
  5
4AE
102
{ACAD_REACTORS
330
4AD
102
}
330
4AD
100
AcDbXrecord
280
     1
270
     1
271
     1
  0
XRECORD
  5
4B2
102
{ACAD_REACTORS
330
4AD
102
}
330
4AD
100
AcDbXrecord
280
     1
270
     1
271
     1
  0
XRECORD
  5
4B1
102
{ACAD_REACTORS
330
4AD
102
}
330
4AD
100
AcDbXrecord
280
     1
270
     1
271
     1
  0
XRECORD
  5
4B3
102
{ACAD_REACTORS
330
4AD
102
}
330
4AD
100
AcDbXrecord
280
     1
270
     1
271
     1
  0
XRECORD
  5
4B0
102
{ACAD_REACTORS
330
4AD
102
}
330
4AD
100
AcDbXrecord
280
     1
270
     1
271
     1
  0
XRECORD
  5
5FE
102
{ACAD_REACTORS
330
4A5
102
}
330
4A5
100
AcDbXrecord
280
     1
102
MATERIAL
148
0.0
149
0.0
149
0.0
 93
        0
 94
      127
282
     0
 72
     0
 77
     0
171
     0
175
     0
179
     0
273
     0
  0
XRECORD
  5
4A7
102
{ACAD_REACTORS
330
4A5
102
}
330
4A5
100
AcDbXrecord
280
     1
270
     1
271
     1
  0
XRECORD
  5
4A6
102
{ACAD_REACTORS
330
4A5
102
}
330
4A5
100
AcDbXrecord
280
     1
270
     1
271
     1
  0
XRECORD
  5
4AA
102
{ACAD_REACTORS
330
4A5
102
}
330
4A5
100
AcDbXrecord
280
     1
270
     1
271
     1
  0
XRECORD
  5
4A9
102
{ACAD_REACTORS
330
4A5
102
}
330
4A5
100
AcDbXrecord
280
     1
270
     1
271
     1
  0
XRECORD
  5
4AB
102
{ACAD_REACTORS
330
4A5
102
}
330
4A5
100
AcDbXrecord
280
     1
270
     1
271
     1
  0
XRECORD
  5
4A8
102
{ACAD_REACTORS
330
4A5
102
}
330
4A5
100
AcDbXrecord
280
     1
270
     1
271
     1
  0
XRECORD
  5
600
102
{ACAD_REACTORS
330
4B5
102
}
330
4B5
100
AcDbXrecord
280
     1
102
MATERIAL
148
0.0
149
0.0
149
0.0
 93
        0
 94
      127
282
     0
 72
     0
 77
     0
171
     0
175
     0
179
     0
273
     0
  0
XRECORD
  5
4B7
102
{ACAD_REACTORS
330
4B5
102
}
330
4B5
100
AcDbXrecord
280
     1
270
     1
271
     1
  0
XRECORD
  5
4B6
102
{ACAD_REACTORS
330
4B5
102
}
330
4B5
100
AcDbXrecord
280
     1
270
     1
271
     1
  0
XRECORD
  5
4BA
102
{ACAD_REACTORS
330
4B5
102
}
330
4B5
100
AcDbXrecord
280
     1
270
     1
271
     1
  0
XRECORD
  5
4B9
102
{ACAD_REACTORS
330
4B5
102
}
330
4B5
100
AcDbXrecord
280
     1
270
     1
271
     1
  0
XRECORD
  5
4BB
102
{ACAD_REACTORS
330
4B5
102
}
330
4B5
100
AcDbXrecord
280
     1
270
     1
271
     1
  0
XRECORD
  5
4B8
102
{ACAD_REACTORS
330
4B5
102
}
330
4B5
100
AcDbXrecord
280
     1
270
     1
271
     1
  0
CELLSTYLEMAP
  5
5FB
102
{ACAD_REACTORS
330
5FA
102
}
330
5FA
100
AcDbCellStyleMap
 90
        3
300
CELLSTYLE
  1
TABLEFORMAT_BEGIN
 90
        5
170
     1
 91
        0
 92
    32768
 62
   257
 93
        1
300
CONTENTFORMAT
  1
CONTENTFORMAT_BEGIN
 90
        0
 91
        0
 92
      512
 93
        0
300

 40
0.0
140
1.0
 94
        5
 62
     0
340
11
144
0.25
309
CONTENTFORMAT_END
171
     0
 94
        0
309
TABLEFORMAT_END
  1
CELLSTYLE_BEGIN
 90
        1
 91
        1
300
_TITLE
309
CELLSTYLE_END
300
CELLSTYLE
  1
TABLEFORMAT_BEGIN
 90
        5
170
     1
 91
        0
 92
        0
 62
   257
 93
        1
300
CONTENTFORMAT
  1
CONTENTFORMAT_BEGIN
 90
        0
 91
        0
 92
      512
 93
        0
300

 40
0.0
140
1.0
 94
        5
 62
     0
340
11
144
0.18
309
CONTENTFORMAT_END
171
     0
 94
        0
309
TABLEFORMAT_END
  1
CELLSTYLE_BEGIN
 90
        2
 91
        1
300
_HEADER
309
CELLSTYLE_END
300
CELLSTYLE
  1
TABLEFORMAT_BEGIN
 90
        5
170
     1
 91
        0
 92
        0
 62
   257
 93
        1
300
CONTENTFORMAT
  1
CONTENTFORMAT_BEGIN
 90
        0
 91
        0
 92
      512
 93
        0
300

 40
0.0
140
1.0
 94
        2
 62
     0
340
11
144
0.18
309
CONTENTFORMAT_END
171
     0
 94
        0
309
TABLEFORMAT_END
  1
CELLSTYLE_BEGIN
 90
        3
 91
        2
300
_DATA
309
CELLSTYLE_END
  0
XRECORD
  5
631
102
{ACAD_REACTORS
330
5FA
102
}
330
5FA
100
AcDbXrecord
280
     1
102
ACAD_ROUNDTRIP_PRE2007_TABLESTYLE
 90
      512
 91
        0
  1

 92
      512
 93
        0
  2

 94
      512
 95
        0
  3

  0
XRECORD
  5
60C
102
{ACAD_REACTORS
330
60B
102
}
330
60B
100
AcDbXrecord
280
     1
102
RTVSPropertyOp0
 70
     1
102
RTVSPropertyOp1
 70
     1
102
RTVSPropertyOp2
 70
     1
102
RTVSPropertyOp3
 70
     1
102
RTVSPropertyOp4
 70
     1
102
RTVSPropertyOp5
 70
     1
102
RTVSPropertyOp6
 70
     1
102
RTVSPropertyOp7
 70
     1
102
RTVSPropertyOp8
 70
     1
102
RTVSPropertyOp9
 70
     1
102
RTVSPropertyOp10
 70
     1
102
RTVSPropertyOp11
 70
     1
102
RTVSPropertyOp12
 70
     1
102
RTVSPropertyOp13
 70
     1
102
RTVSPropertyOp14
 70
     1
102
RTVSPropertyOp15
 70
     1
102
RTVSPropertyOp16
 70
     1
102
RTVSPropertyOp17
 70
     1
102
RTVSPropertyOp18
 70
     1
102
RTVSPropertyOp19
 70
     1
102
RTVSPropertyOp20
 70
     1
102
RTVSPropertyOp21
 70
     1
102
RTVSPropertyOp22
 70
     1
102
RTVSPropertyOp23
 70
     1
102
RTVSPropertyOp24
 70
     1
102
RTVSPropertyOp25
 70
     1
102
RTVSPropertyOp26
 70
     1
102
RTVSPropertyOp27
 70
     1
102
RTVSPropertyOp28
 70
     1
102
RTVSPropertyOp29
 70
     1
102
RTVSPropertyOp30
 70
     1
102
RTVSPropertyOp31
 70
     1
102
RTVSPropertyOp32
 70
     1
  0
XRECORD
  5
60A
102
{ACAD_REACTORS
330
609
102
}
330
609
100
AcDbXrecord
280
     1
102
RTVSPropertyOp0
 70
     1
102
RTVSPropertyOp1
 70
     1
102
RTVSPropertyOp2
 70
     1
102
RTVSPropertyOp3
 70
     1
102
RTVSPropertyOp4
 70
     1
102
RTVSPropertyOp5
 70
     1
102
RTVSPropertyOp6
 70
     1
102
RTVSPropertyOp7
 70
     1
102
RTVSPropertyOp8
 70
     1
102
RTVSPropertyOp9
 70
     1
102
RTVSPropertyOp10
 70
     1
102
RTVSPropertyOp11
 70
     1
102
RTVSPropertyOp12
 70
     1
102
RTVSPropertyOp13
 70
     1
102
RTVSPropertyOp14
 70
     1
102
RTVSPropertyOp15
 70
     1
102
RTVSPropertyOp16
 70
     1
102
RTVSPropertyOp17
 70
     1
102
RTVSPropertyOp18
 70
     1
102
RTVSPropertyOp19
 70
     1
102
RTVSPropertyOp20
 70
     1
102
RTVSPropertyOp21
 70
     1
102
RTVSPropertyOp22
 70
     1
102
RTVSPropertyOp23
 70
     1
102
RTVSPropertyOp24
 70
     1
102
RTVSPropertyOp25
 70
     1
102
RTVSPropertyOp26
 70
     1
102
RTVSPropertyOp27
 70
     1
102
RTVSPropertyOp28
 70
     1
102
RTVSPropertyOp29
 70
     1
102
RTVSPropertyOp30
 70
     1
102
RTVSPropertyOp31
 70
     1
102
RTVSPropertyOp32
 70
     1
  0
XRECORD
  5
618
102
{ACAD_REACTORS
330
617
102
}
330
617
100
AcDbXrecord
280
     1
102
RTVSPropertyOp0
 70
     1
102
RTVSPropertyOp1
 70
     1
102
RTVSPropertyOp2
 70
     1
102
RTVSPropertyOp3
 70
     1
102
RTVSPropertyOp4
 70
     1
102
RTVSPropertyOp5
 70
     1
102
RTVSPropertyOp6
 70
     1
102
RTVSPropertyOp7
 70
     1
102
RTVSPropertyOp8
 70
     1
102
RTVSPropertyOp9
 70
     1
102
RTVSPropertyOp10
 70
     1
102
RTVSPropertyOp11
 70
     1
102
RTVSPropertyOp12
 70
     1
102
RTVSPropertyOp13
 70
     1
102
RTVSPropertyOp14
 70
     1
102
RTVSPropertyOp15
 70
     1
102
RTVSPropertyOp16
 70
     1
102
RTVSPropertyOp17
 70
     1
102
RTVSPropertyOp18
 70
     1
102
RTVSPropertyOp19
 70
     1
102
RTVSPropertyOp20
 70
     1
102
RTVSPropertyOp21
 70
     1
102
RTVSPropertyOp22
 70
     1
102
RTVSPropertyOp23
 70
     1
102
RTVSPropertyOp24
 70
     1
102
RTVSPropertyOp25
 70
     1
102
RTVSPropertyOp26
 70
     1
102
RTVSPropertyOp27
 70
     1
102
RTVSPropertyOp28
 70
     1
102
RTVSPropertyOp29
 70
     1
102
RTVSPropertyOp30
 70
     1
102
RTVSPropertyOp31
 70
     1
102
RTVSPropertyOp32
 70
     1
  0
XRECORD
  5
620
102
{ACAD_REACTORS
330
61F
102
}
330
61F
100
AcDbXrecord
280
     1
102
RTVSPropertyOp0
 70
     1
102
RTVSPropertyOp1
 70
     1
102
RTVSPropertyOp2
 70
     1
102
RTVSPropertyOp3
 70
     1
102
RTVSPropertyOp4
 70
     1
102
RTVSPropertyOp5
 70
     1
102
RTVSPropertyOp6
 70
     1
102
RTVSPropertyOp7
 70
     1
102
RTVSPropertyOp8
 70
     1
102
RTVSPropertyOp9
 70
     1
102
RTVSPropertyOp10
 70
     1
102
RTVSPropertyOp11
 70
     1
102
RTVSPropertyOp12
 70
     1
102
RTVSPropertyOp13
 70
     1
102
RTVSPropertyOp14
 70
     1
102
RTVSPropertyOp15
 70
     1
102
RTVSPropertyOp16
 70
     1
102
RTVSPropertyOp17
 70
     1
102
RTVSPropertyOp18
 70
     1
102
RTVSPropertyOp19
 70
     1
102
RTVSPropertyOp20
 70
     1
102
RTVSPropertyOp21
 70
     1
102
RTVSPropertyOp22
 70
     1
102
RTVSPropertyOp23
 70
     1
102
RTVSPropertyOp24
 70
     1
102
RTVSPropertyOp25
 70
     1
102
RTVSPropertyOp26
 70
     1
102
RTVSPropertyOp27
 70
     1
102
RTVSPropertyOp28
 70
     1
102
RTVSPropertyOp29
 70
     1
102
RTVSPropertyOp30
 70
     1
102
RTVSPropertyOp31
 70
     1
102
RTVSPropertyOp32
 70
     1
  0
XRECORD
  5
612
102
{ACAD_REACTORS
330
611
102
}
330
611
100
AcDbXrecord
280
     1
102
RTVSPropertyOp0
 70
     1
102
RTVSPropertyOp1
 70
     1
102
RTVSPropertyOp2
 70
     1
102
RTVSPropertyOp3
 70
     1
102
RTVSPropertyOp4
 70
     1
102
RTVSPropertyOp5
 70
     1
102
RTVSPropertyOp6
 70
     1
102
RTVSPropertyOp7
 70
     1
102
RTVSPropertyOp8
 70
     1
102
RTVSPropertyOp9
 70
     1
102
RTVSPropertyOp10
 70
     1
102
RTVSPropertyOp11
 70
     1
102
RTVSPropertyOp12
 70
     1
102
RTVSPropertyOp13
 70
     1
102
RTVSPropertyOp14
 70
     1
102
RTVSPropertyOp15
 70
     1
102
RTVSPropertyOp16
 70
     1
102
RTVSPropertyOp17
 70
     1
102
RTVSPropertyOp18
 70
     1
102
RTVSPropertyOp19
 70
     1
102
RTVSPropertyOp20
 70
     1
102
RTVSPropertyOp21
 70
     1
102
RTVSPropertyOp22
 70
     1
102
RTVSPropertyOp23
 70
     1
102
RTVSPropertyOp24
 70
     1
102
RTVSPropertyOp25
 70
     1
102
RTVSPropertyOp26
 70
     1
102
RTVSPropertyOp27
 70
     1
102
RTVSPropertyOp28
 70
     1
102
RTVSPropertyOp29
 70
     1
102
RTVSPropertyOp30
 70
     1
102
RTVSPropertyOp31
 70
     1
102
RTVSPropertyOp32
 70
     1
  0
XRECORD
  5
616
102
{ACAD_REACTORS
330
615
102
}
330
615
100
AcDbXrecord
280
     1
102
RTVSPropertyOp0
 70
     1
102
RTVSPropertyOp1
 70
     1
102
RTVSPropertyOp2
 70
     1
102
RTVSPropertyOp3
 70
     1
102
RTVSPropertyOp4
 70
     1
102
RTVSPropertyOp5
 70
     1
102
RTVSPropertyOp6
 70
     1
102
RTVSPropertyOp7
 70
     1
102
RTVSPropertyOp8
 70
     1
102
RTVSPropertyOp9
 70
     1
102
RTVSPropertyOp10
 70
     1
102
RTVSPropertyOp11
 70
     1
102
RTVSPropertyOp12
 70
     1
102
RTVSPropertyOp13
 70
     1
102
RTVSPropertyOp14
 70
     1
102
RTVSPropertyOp15
 70
     1
102
RTVSPropertyOp16
 70
     1
102
RTVSPropertyOp17
 70
     1
102
RTVSPropertyOp18
 70
     1
102
RTVSPropertyOp19
 70
     1
102
RTVSPropertyOp20
 70
     1
102
RTVSPropertyOp21
 70
     1
102
RTVSPropertyOp22
 70
     1
102
RTVSPropertyOp23
 70
     1
102
RTVSPropertyOp24
 70
     1
102
RTVSPropertyOp25
 70
     1
102
RTVSPropertyOp26
 70
     1
102
RTVSPropertyOp27
 70
     1
102
RTVSPropertyOp28
 70
     1
102
RTVSPropertyOp29
 70
     1
102
RTVSPropertyOp30
 70
     1
102
RTVSPropertyOp31
 70
     1
102
RTVSPropertyOp32
 70
     1
  0
XRECORD
  5
630
102
{ACAD_REACTORS
330
62F
102
}
330
62F
100
AcDbXrecord
280
     1
102
RTVSPropertyOp0
 70
     0
102
RTVSPropertyOp1
 70
     0
102
RTVSPropertyOp2
 70
     0
102
RTVSPropertyOp3
 70
     0
102
RTVSPropertyOp4
 70
     0
102
RTVSPropertyOp5
 70
     0
102
RTVSPropertyOp6
 70
     0
102
RTVSPropertyOp7
 70
     0
102
RTVSPropertyOp8
 70
     0
102
RTVSPropertyOp9
 70
     0
102
RTVSPropertyOp10
 70
     0
102
RTVSPropertyOp11
 70
     0
102
RTVSPropertyOp12
 70
     0
102
RTVSPropertyOp13
 70
     0
102
RTVSPropertyOp14
 70
     2
102
RTVSPropertyOp15
 70
     0
102
RTVSPropertyOp16
 70
     0
102
RTVSPropertyOp17
 70
     0
102
RTVSPropertyOp18
 70
     0
102
RTVSPropertyOp19
 70
     0
102
RTVSPropertyOp20
 70
     0
102
RTVSPropertyOp21
 70
     0
102
RTVSPropertyOp22
 70
     0
102
RTVSPropertyOp23
 70
     0
102
RTVSPropertyOp24
 70
     0
102
RTVSPropertyOp25
 70
     0
102
RTVSPropertyOp26
 70
     0
102
RTVSPropertyOp27
 70
     0
102
RTVSPropertyOp28
 70
     0
102
RTVSPropertyOp29
 70
     0
102
RTVSPropertyOp30
 70
     0
102
RTVSPropertyOp31
 70
     0
102
RTVSPropertyOp32
 70
     0
  0
XRECORD
  5
61E
102
{ACAD_REACTORS
330
61D
102
}
330
61D
100
AcDbXrecord
280
     1
102
RTVSPropertyOp0
 70
     1
102
RTVSPropertyOp1
 70
     1
102
RTVSPropertyOp2
 70
     1
102
RTVSPropertyOp3
 70
     1
102
RTVSPropertyOp4
 70
     1
102
RTVSPropertyOp5
 70
     1
102
RTVSPropertyOp6
 70
     1
102
RTVSPropertyOp7
 70
     1
102
RTVSPropertyOp8
 70
     1
102
RTVSPropertyOp9
 70
     1
102
RTVSPropertyOp10
 70
     1
102
RTVSPropertyOp11
 70
     1
102
RTVSPropertyOp12
 70
     1
102
RTVSPropertyOp13
 70
     1
102
RTVSPropertyOp14
 70
     1
102
RTVSPropertyOp15
 70
     1
102
RTVSPropertyOp16
 70
     1
102
RTVSPropertyOp17
 70
     1
102
RTVSPropertyOp18
 70
     1
102
RTVSPropertyOp19
 70
     1
102
RTVSPropertyOp20
 70
     1
102
RTVSPropertyOp21
 70
     1
102
RTVSPropertyOp22
 70
     1
102
RTVSPropertyOp23
 70
     1
102
RTVSPropertyOp24
 70
     1
102
RTVSPropertyOp25
 70
     1
102
RTVSPropertyOp26
 70
     1
102
RTVSPropertyOp27
 70
     1
102
RTVSPropertyOp28
 70
     1
102
RTVSPropertyOp29
 70
     1
102
RTVSPropertyOp30
 70
     1
102
RTVSPropertyOp31
 70
     1
102
RTVSPropertyOp32
 70
     1
  0
XRECORD
  5
602
102
{ACAD_REACTORS
330
601
102
}
330
601
100
AcDbXrecord
280
     1
102
RTVSPropertyOp0
 70
     1
102
RTVSPropertyOp1
 70
     1
102
RTVSPropertyOp2
 70
     1
102
RTVSPropertyOp3
 70
     1
102
RTVSPropertyOp4
 70
     1
102
RTVSPropertyOp5
 70
     1
102
RTVSPropertyOp6
 70
     1
102
RTVSPropertyOp7
 70
     1
102
RTVSPropertyOp8
 70
     1
102
RTVSPropertyOp9
 70
     1
102
RTVSPropertyOp10
 70
     1
102
RTVSPropertyOp11
 70
     1
102
RTVSPropertyOp12
 70
     1
102
RTVSPropertyOp13
 70
     1
102
RTVSPropertyOp14
 70
     1
102
RTVSPropertyOp15
 70
     1
102
RTVSPropertyOp16
 70
     1
102
RTVSPropertyOp17
 70
     1
102
RTVSPropertyOp18
 70
     1
102
RTVSPropertyOp19
 70
     1
102
RTVSPropertyOp20
 70
     1
102
RTVSPropertyOp21
 70
     1
102
RTVSPropertyOp22
 70
     1
102
RTVSPropertyOp23
 70
     1
102
RTVSPropertyOp24
 70
     1
102
RTVSPropertyOp25
 70
     1
102
RTVSPropertyOp26
 70
     1
102
RTVSPropertyOp27
 70
     1
102
RTVSPropertyOp28
 70
     1
102
RTVSPropertyOp29
 70
     1
102
RTVSPropertyOp30
 70
     1
102
RTVSPropertyOp31
 70
     1
102
RTVSPropertyOp32
 70
     1
  0
XRECORD
  5
604
102
{ACAD_REACTORS
330
603
102
}
330
603
100
AcDbXrecord
280
     1
102
RTVSPropertyOp0
 70
     1
102
RTVSPropertyOp1
 70
     1
102
RTVSPropertyOp2
 70
     1
102
RTVSPropertyOp3
 70
     1
102
RTVSPropertyOp4
 70
     1
102
RTVSPropertyOp5
 70
     1
102
RTVSPropertyOp6
 70
     1
102
RTVSPropertyOp7
 70
     1
102
RTVSPropertyOp8
 70
     1
102
RTVSPropertyOp9
 70
     1
102
RTVSPropertyOp10
 70
     1
102
RTVSPropertyOp11
 70
     1
102
RTVSPropertyOp12
 70
     1
102
RTVSPropertyOp13
 70
     1
102
RTVSPropertyOp14
 70
     1
102
RTVSPropertyOp15
 70
     1
102
RTVSPropertyOp16
 70
     1
102
RTVSPropertyOp17
 70
     1
102
RTVSPropertyOp18
 70
     1
102
RTVSPropertyOp19
 70
     1
102
RTVSPropertyOp20
 70
     1
102
RTVSPropertyOp21
 70
     1
102
RTVSPropertyOp22
 70
     1
102
RTVSPropertyOp23
 70
     1
102
RTVSPropertyOp24
 70
     1
102
RTVSPropertyOp25
 70
     1
102
RTVSPropertyOp26
 70
     1
102
RTVSPropertyOp27
 70
     1
102
RTVSPropertyOp28
 70
     1
102
RTVSPropertyOp29
 70
     1
102
RTVSPropertyOp30
 70
     1
102
RTVSPropertyOp31
 70
     1
102
RTVSPropertyOp32
 70
     1
  0
XRECORD
  5
606
102
{ACAD_REACTORS
330
605
102
}
330
605
100
AcDbXrecord
280
     1
102
RTVSPropertyOp0
 70
     1
102
RTVSPropertyOp1
 70
     1
102
RTVSPropertyOp2
 70
     1
102
RTVSPropertyOp3
 70
     1
102
RTVSPropertyOp4
 70
     1
102
RTVSPropertyOp5
 70
     1
102
RTVSPropertyOp6
 70
     1
102
RTVSPropertyOp7
 70
     1
102
RTVSPropertyOp8
 70
     1
102
RTVSPropertyOp9
 70
     1
102
RTVSPropertyOp10
 70
     1
102
RTVSPropertyOp11
 70
     1
102
RTVSPropertyOp12
 70
     1
102
RTVSPropertyOp13
 70
     1
102
RTVSPropertyOp14
 70
     1
102
RTVSPropertyOp15
 70
     1
102
RTVSPropertyOp16
 70
     1
102
RTVSPropertyOp17
 70
     1
102
RTVSPropertyOp18
 70
     1
102
RTVSPropertyOp19
 70
     1
102
RTVSPropertyOp20
 70
     1
102
RTVSPropertyOp21
 70
     1
102
RTVSPropertyOp22
 70
     1
102
RTVSPropertyOp23
 70
     1
102
RTVSPropertyOp24
 70
     1
102
RTVSPropertyOp25
 70
     1
102
RTVSPropertyOp26
 70
     1
102
RTVSPropertyOp27
 70
     1
102
RTVSPropertyOp28
 70
     1
102
RTVSPropertyOp29
 70
     1
102
RTVSPropertyOp30
 70
     1
102
RTVSPropertyOp31
 70
     1
102
RTVSPropertyOp32
 70
     1
  0
XRECORD
  5
608
102
{ACAD_REACTORS
330
607
102
}
330
607
100
AcDbXrecord
280
     1
102
RTVSPropertyOp0
 70
     1
102
RTVSPropertyOp1
 70
     1
102
RTVSPropertyOp2
 70
     1
102
RTVSPropertyOp3
 70
     1
102
RTVSPropertyOp4
 70
     1
102
RTVSPropertyOp5
 70
     1
102
RTVSPropertyOp6
 70
     1
102
RTVSPropertyOp7
 70
     1
102
RTVSPropertyOp8
 70
     1
102
RTVSPropertyOp9
 70
     1
102
RTVSPropertyOp10
 70
     1
102
RTVSPropertyOp11
 70
     1
102
RTVSPropertyOp12
 70
     1
102
RTVSPropertyOp13
 70
     1
102
RTVSPropertyOp14
 70
     1
102
RTVSPropertyOp15
 70
     1
102
RTVSPropertyOp16
 70
     1
102
RTVSPropertyOp17
 70
     1
102
RTVSPropertyOp18
 70
     1
102
RTVSPropertyOp19
 70
     1
102
RTVSPropertyOp20
 70
     1
102
RTVSPropertyOp21
 70
     1
102
RTVSPropertyOp22
 70
     1
102
RTVSPropertyOp23
 70
     1
102
RTVSPropertyOp24
 70
     1
102
RTVSPropertyOp25
 70
     1
102
RTVSPropertyOp26
 70
     1
102
RTVSPropertyOp27
 70
     1
102
RTVSPropertyOp28
 70
     1
102
RTVSPropertyOp29
 70
     1
102
RTVSPropertyOp30
 70
     1
102
RTVSPropertyOp31
 70
     1
102
RTVSPropertyOp32
 70
     1
  0
XRECORD
  5
610
102
{ACAD_REACTORS
330
60F
102
}
330
60F
100
AcDbXrecord
280
     1
102
RTVSPropertyOp0
 70
     1
102
RTVSPropertyOp1
 70
     1
102
RTVSPropertyOp2
 70
     1
102
RTVSPropertyOp3
 70
     1
102
RTVSPropertyOp4
 70
     1
102
RTVSPropertyOp5
 70
     1
102
RTVSPropertyOp6
 70
     1
102
RTVSPropertyOp7
 70
     1
102
RTVSPropertyOp8
 70
     1
102
RTVSPropertyOp9
 70
     1
102
RTVSPropertyOp10
 70
     1
102
RTVSPropertyOp11
 70
     1
102
RTVSPropertyOp12
 70
     1
102
RTVSPropertyOp13
 70
     1
102
RTVSPropertyOp14
 70
     1
102
RTVSPropertyOp15
 70
     1
102
RTVSPropertyOp16
 70
     1
102
RTVSPropertyOp17
 70
     1
102
RTVSPropertyOp18
 70
     1
102
RTVSPropertyOp19
 70
     1
102
RTVSPropertyOp20
 70
     1
102
RTVSPropertyOp21
 70
     1
102
RTVSPropertyOp22
 70
     1
102
RTVSPropertyOp23
 70
     1
102
RTVSPropertyOp24
 70
     1
102
RTVSPropertyOp25
 70
     1
102
RTVSPropertyOp26
 70
     1
102
RTVSPropertyOp27
 70
     1
102
RTVSPropertyOp28
 70
     1
102
RTVSPropertyOp29
 70
     1
102
RTVSPropertyOp30
 70
     1
102
RTVSPropertyOp31
 70
     1
102
RTVSPropertyOp32
 70
     1
  0
XRECORD
  5
62C
102
{ACAD_REACTORS
330
62B
102
}
330
62B
100
AcDbXrecord
280
     1
102
RTVSPropertyOp0
 70
     0
102
RTVSPropertyOp1
 70
     0
102
RTVSPropertyOp2
 70
     0
102
RTVSPropertyOp3
 70
     0
102
RTVSPropertyOp4
 70
     0
102
RTVSPropertyOp5
 70
     0
102
RTVSPropertyOp6
 70
     0
102
RTVSPropertyOp7
 70
     0
102
RTVSPropertyOp8
 70
     0
102
RTVSPropertyOp9
 70
     0
102
RTVSPropertyOp10
 70
     0
102
RTVSPropertyOp11
 70
     0
102
RTVSPropertyOp12
 70
     0
102
RTVSPropertyOp13
 70
     0
102
RTVSPropertyOp14
 70
     2
102
RTVSPropertyOp15
 70
     0
102
RTVSPropertyOp16
 70
     0
102
RTVSPropertyOp17
 70
     0
102
RTVSPropertyOp18
 70
     0
102
RTVSPropertyOp19
 70
     0
102
RTVSPropertyOp20
 70
     0
102
RTVSPropertyOp21
 70
     0
102
RTVSPropertyOp22
 70
     0
102
RTVSPropertyOp23
 70
     0
102
RTVSPropertyOp24
 70
     0
102
RTVSPropertyOp25
 70
     0
102
RTVSPropertyOp26
 70
     0
102
RTVSPropertyOp27
 70
     0
102
RTVSPropertyOp28
 70
     0
102
RTVSPropertyOp29
 70
     0
102
RTVSPropertyOp30
 70
     0
102
RTVSPropertyOp31
 70
     0
102
RTVSPropertyOp32
 70
     0
  0
XRECORD
  5
61C
102
{ACAD_REACTORS
330
61B
102
}
330
61B
100
AcDbXrecord
280
     1
102
RTVSPropertyOp0
 70
     1
102
RTVSPropertyOp1
 70
     1
102
RTVSPropertyOp2
 70
     1
102
RTVSPropertyOp3
 70
     1
102
RTVSPropertyOp4
 70
     1
102
RTVSPropertyOp5
 70
     1
102
RTVSPropertyOp6
 70
     1
102
RTVSPropertyOp7
 70
     1
102
RTVSPropertyOp8
 70
     1
102
RTVSPropertyOp9
 70
     1
102
RTVSPropertyOp10
 70
     1
102
RTVSPropertyOp11
 70
     1
102
RTVSPropertyOp12
 70
     1
102
RTVSPropertyOp13
 70
     1
102
RTVSPropertyOp14
 70
     1
102
RTVSPropertyOp15
 70
     1
102
RTVSPropertyOp16
 70
     1
102
RTVSPropertyOp17
 70
     1
102
RTVSPropertyOp18
 70
     1
102
RTVSPropertyOp19
 70
     1
102
RTVSPropertyOp20
 70
     1
102
RTVSPropertyOp21
 70
     1
102
RTVSPropertyOp22
 70
     1
102
RTVSPropertyOp23
 70
     1
102
RTVSPropertyOp24
 70
     1
102
RTVSPropertyOp25
 70
     1
102
RTVSPropertyOp26
 70
     1
102
RTVSPropertyOp27
 70
     1
102
RTVSPropertyOp28
 70
     1
102
RTVSPropertyOp29
 70
     1
102
RTVSPropertyOp30
 70
     1
102
RTVSPropertyOp31
 70
     1
102
RTVSPropertyOp32
 70
     1
  0
XRECORD
  5
62E
102
{ACAD_REACTORS
330
62D
102
}
330
62D
100
AcDbXrecord
280
     1
102
RTVSPropertyOp0
 70
     0
102
RTVSPropertyOp1
 70
     0
102
RTVSPropertyOp2
 70
     0
102
RTVSPropertyOp3
 70
     0
102
RTVSPropertyOp4
 70
     0
102
RTVSPropertyOp5
 70
     0
102
RTVSPropertyOp6
 70
     0
102
RTVSPropertyOp7
 70
     0
102
RTVSPropertyOp8
 70
     0
102
RTVSPropertyOp9
 70
     0
102
RTVSPropertyOp10
 70
     0
102
RTVSPropertyOp11
 70
     0
102
RTVSPropertyOp12
 70
     0
102
RTVSPropertyOp13
 70
     0
102
RTVSPropertyOp14
 70
     2
102
RTVSPropertyOp15
 70
     0
102
RTVSPropertyOp16
 70
     0
102
RTVSPropertyOp17
 70
     0
102
RTVSPropertyOp18
 70
     0
102
RTVSPropertyOp19
 70
     0
102
RTVSPropertyOp20
 70
     0
102
RTVSPropertyOp21
 70
     0
102
RTVSPropertyOp22
 70
     0
102
RTVSPropertyOp23
 70
     0
102
RTVSPropertyOp24
 70
     0
102
RTVSPropertyOp25
 70
     0
102
RTVSPropertyOp26
 70
     0
102
RTVSPropertyOp27
 70
     0
102
RTVSPropertyOp28
 70
     0
102
RTVSPropertyOp29
 70
     0
102
RTVSPropertyOp30
 70
     0
102
RTVSPropertyOp31
 70
     0
102
RTVSPropertyOp32
 70
     0
  0
XRECORD
  5
614
102
{ACAD_REACTORS
330
613
102
}
330
613
100
AcDbXrecord
280
     1
102
RTVSPropertyOp0
 70
     1
102
RTVSPropertyOp1
 70
     1
102
RTVSPropertyOp2
 70
     1
102
RTVSPropertyOp3
 70
     1
102
RTVSPropertyOp4
 70
     1
102
RTVSPropertyOp5
 70
     1
102
RTVSPropertyOp6
 70
     1
102
RTVSPropertyOp7
 70
     1
102
RTVSPropertyOp8
 70
     1
102
RTVSPropertyOp9
 70
     1
102
RTVSPropertyOp10
 70
     1
102
RTVSPropertyOp11
 70
     1
102
RTVSPropertyOp12
 70
     1
102
RTVSPropertyOp13
 70
     1
102
RTVSPropertyOp14
 70
     1
102
RTVSPropertyOp15
 70
     1
102
RTVSPropertyOp16
 70
     1
102
RTVSPropertyOp17
 70
     1
102
RTVSPropertyOp18
 70
     1
102
RTVSPropertyOp19
 70
     1
102
RTVSPropertyOp20
 70
     1
102
RTVSPropertyOp21
 70
     1
102
RTVSPropertyOp22
 70
     1
102
RTVSPropertyOp23
 70
     1
102
RTVSPropertyOp24
 70
     1
102
RTVSPropertyOp25
 70
     1
102
RTVSPropertyOp26
 70
     1
102
RTVSPropertyOp27
 70
     1
102
RTVSPropertyOp28
 70
     1
102
RTVSPropertyOp29
 70
     1
102
RTVSPropertyOp30
 70
     1
102
RTVSPropertyOp31
 70
     1
102
RTVSPropertyOp32
 70
     1
  0
XRECORD
  5
62A
102
{ACAD_REACTORS
330
629
102
}
330
629
100
AcDbXrecord
280
     1
102
RTVSPropertyOp0
 70
     1
102
RTVSPropertyOp1
 70
     1
102
RTVSPropertyOp2
 70
     1
102
RTVSPropertyOp3
 70
     1
102
RTVSPropertyOp4
 70
     1
102
RTVSPropertyOp5
 70
     1
102
RTVSPropertyOp6
 70
     1
102
RTVSPropertyOp7
 70
     1
102
RTVSPropertyOp8
 70
     1
102
RTVSPropertyOp9
 70
     1
102
RTVSPropertyOp10
 70
     1
102
RTVSPropertyOp11
 70
     1
102
RTVSPropertyOp12
 70
     1
102
RTVSPropertyOp13
 70
     1
102
RTVSPropertyOp14
 70
     1
102
RTVSPropertyOp15
 70
     1
102
RTVSPropertyOp16
 70
     1
102
RTVSPropertyOp17
 70
     1
102
RTVSPropertyOp18
 70
     1
102
RTVSPropertyOp19
 70
     1
102
RTVSPropertyOp20
 70
     1
102
RTVSPropertyOp21
 70
     1
102
RTVSPropertyOp22
 70
     1
102
RTVSPropertyOp23
 70
     1
102
RTVSPropertyOp24
 70
     1
102
RTVSPropertyOp25
 70
     1
102
RTVSPropertyOp26
 70
     1
102
RTVSPropertyOp27
 70
     1
102
RTVSPropertyOp28
 70
     1
102
RTVSPropertyOp29
 70
     1
102
RTVSPropertyOp30
 70
     1
102
RTVSPropertyOp31
 70
     1
102
RTVSPropertyOp32
 70
     1
  0
XRECORD
  5
628
102
{ACAD_REACTORS
330
627
102
}
330
627
100
AcDbXrecord
280
     1
102
RTVSPropertyOp0
 70
     1
102
RTVSPropertyOp1
 70
     1
102
RTVSPropertyOp2
 70
     1
102
RTVSPropertyOp3
 70
     1
102
RTVSPropertyOp4
 70
     1
102
RTVSPropertyOp5
 70
     1
102
RTVSPropertyOp6
 70
     1
102
RTVSPropertyOp7
 70
     1
102
RTVSPropertyOp8
 70
     1
102
RTVSPropertyOp9
 70
     1
102
RTVSPropertyOp10
 70
     1
102
RTVSPropertyOp11
 70
     1
102
RTVSPropertyOp12
 70
     1
102
RTVSPropertyOp13
 70
     1
102
RTVSPropertyOp14
 70
     1
102
RTVSPropertyOp15
 70
     1
102
RTVSPropertyOp16
 70
     1
102
RTVSPropertyOp17
 70
     1
102
RTVSPropertyOp18
 70
     1
102
RTVSPropertyOp19
 70
     1
102
RTVSPropertyOp20
 70
     1
102
RTVSPropertyOp21
 70
     1
102
RTVSPropertyOp22
 70
     1
102
RTVSPropertyOp23
 70
     1
102
RTVSPropertyOp24
 70
     1
102
RTVSPropertyOp25
 70
     1
102
RTVSPropertyOp26
 70
     1
102
RTVSPropertyOp27
 70
     1
102
RTVSPropertyOp28
 70
     1
102
RTVSPropertyOp29
 70
     1
102
RTVSPropertyOp30
 70
     1
102
RTVSPropertyOp31
 70
     1
102
RTVSPropertyOp32
 70
     1
  0
XRECORD
  5
622
102
{ACAD_REACTORS
330
621
102
}
330
621
100
AcDbXrecord
280
     1
102
RTVSPropertyOp0
 70
     1
102
RTVSPropertyOp1
 70
     1
102
RTVSPropertyOp2
 70
     1
102
RTVSPropertyOp3
 70
     1
102
RTVSPropertyOp4
 70
     1
102
RTVSPropertyOp5
 70
     1
102
RTVSPropertyOp6
 70
     1
102
RTVSPropertyOp7
 70
     1
102
RTVSPropertyOp8
 70
     1
102
RTVSPropertyOp9
 70
     1
102
RTVSPropertyOp10
 70
     1
102
RTVSPropertyOp11
 70
     1
102
RTVSPropertyOp12
 70
     1
102
RTVSPropertyOp13
 70
     1
102
RTVSPropertyOp14
 70
     1
102
RTVSPropertyOp15
 70
     1
102
RTVSPropertyOp16
 70
     1
102
RTVSPropertyOp17
 70
     1
102
RTVSPropertyOp18
 70
     1
102
RTVSPropertyOp19
 70
     1
102
RTVSPropertyOp20
 70
     1
102
RTVSPropertyOp21
 70
     1
102
RTVSPropertyOp22
 70
     1
102
RTVSPropertyOp23
 70
     1
102
RTVSPropertyOp24
 70
     1
102
RTVSPropertyOp25
 70
     1
102
RTVSPropertyOp26
 70
     1
102
RTVSPropertyOp27
 70
     1
102
RTVSPropertyOp28
 70
     1
102
RTVSPropertyOp29
 70
     1
102
RTVSPropertyOp30
 70
     1
102
RTVSPropertyOp31
 70
     1
102
RTVSPropertyOp32
 70
     1
  0
XRECORD
  5
624
102
{ACAD_REACTORS
330
623
102
}
330
623
100
AcDbXrecord
280
     1
102
RTVSPropertyOp0
 70
     1
102
RTVSPropertyOp1
 70
     1
102
RTVSPropertyOp2
 70
     1
102
RTVSPropertyOp3
 70
     1
102
RTVSPropertyOp4
 70
     1
102
RTVSPropertyOp5
 70
     1
102
RTVSPropertyOp6
 70
     1
102
RTVSPropertyOp7
 70
     1
102
RTVSPropertyOp8
 70
     1
102
RTVSPropertyOp9
 70
     1
102
RTVSPropertyOp10
 70
     1
102
RTVSPropertyOp11
 70
     1
102
RTVSPropertyOp12
 70
     1
102
RTVSPropertyOp13
 70
     1
102
RTVSPropertyOp14
 70
     1
102
RTVSPropertyOp15
 70
     1
102
RTVSPropertyOp16
 70
     1
102
RTVSPropertyOp17
 70
     1
102
RTVSPropertyOp18
 70
     1
102
RTVSPropertyOp19
 70
     1
102
RTVSPropertyOp20
 70
     1
102
RTVSPropertyOp21
 70
     1
102
RTVSPropertyOp22
 70
     1
102
RTVSPropertyOp23
 70
     1
102
RTVSPropertyOp24
 70
     1
102
RTVSPropertyOp25
 70
     1
102
RTVSPropertyOp26
 70
     1
102
RTVSPropertyOp27
 70
     1
102
RTVSPropertyOp28
 70
     1
102
RTVSPropertyOp29
 70
     1
102
RTVSPropertyOp30
 70
     1
102
RTVSPropertyOp31
 70
     1
102
RTVSPropertyOp32
 70
     1
  0
XRECORD
  5
61A
102
{ACAD_REACTORS
330
619
102
}
330
619
100
AcDbXrecord
280
     1
102
RTVSPropertyOp0
 70
     1
102
RTVSPropertyOp1
 70
     1
102
RTVSPropertyOp2
 70
     1
102
RTVSPropertyOp3
 70
     1
102
RTVSPropertyOp4
 70
     1
102
RTVSPropertyOp5
 70
     1
102
RTVSPropertyOp6
 70
     1
102
RTVSPropertyOp7
 70
     1
102
RTVSPropertyOp8
 70
     1
102
RTVSPropertyOp9
 70
     1
102
RTVSPropertyOp10
 70
     1
102
RTVSPropertyOp11
 70
     1
102
RTVSPropertyOp12
 70
     1
102
RTVSPropertyOp13
 70
     1
102
RTVSPropertyOp14
 70
     1
102
RTVSPropertyOp15
 70
     1
102
RTVSPropertyOp16
 70
     1
102
RTVSPropertyOp17
 70
     1
102
RTVSPropertyOp18
 70
     1
102
RTVSPropertyOp19
 70
     1
102
RTVSPropertyOp20
 70
     1
102
RTVSPropertyOp21
 70
     1
102
RTVSPropertyOp22
 70
     1
102
RTVSPropertyOp23
 70
     1
102
RTVSPropertyOp24
 70
     1
102
RTVSPropertyOp25
 70
     1
102
RTVSPropertyOp26
 70
     1
102
RTVSPropertyOp27
 70
     1
102
RTVSPropertyOp28
 70
     1
102
RTVSPropertyOp29
 70
     1
102
RTVSPropertyOp30
 70
     1
102
RTVSPropertyOp31
 70
     1
102
RTVSPropertyOp32
 70
     1
  0
XRECORD
  5
60E
102
{ACAD_REACTORS
330
60D
102
}
330
60D
100
AcDbXrecord
280
     1
102
RTVSPropertyOp0
 70
     1
102
RTVSPropertyOp1
 70
     1
102
RTVSPropertyOp2
 70
     1
102
RTVSPropertyOp3
 70
     1
102
RTVSPropertyOp4
 70
     1
102
RTVSPropertyOp5
 70
     1
102
RTVSPropertyOp6
 70
     1
102
RTVSPropertyOp7
 70
     1
102
RTVSPropertyOp8
 70
     1
102
RTVSPropertyOp9
 70
     1
102
RTVSPropertyOp10
 70
     1
102
RTVSPropertyOp11
 70
     1
102
RTVSPropertyOp12
 70
     1
102
RTVSPropertyOp13
 70
     1
102
RTVSPropertyOp14
 70
     1
102
RTVSPropertyOp15
 70
     1
102
RTVSPropertyOp16
 70
     1
102
RTVSPropertyOp17
 70
     1
102
RTVSPropertyOp18
 70
     1
102
RTVSPropertyOp19
 70
     1
102
RTVSPropertyOp20
 70
     1
102
RTVSPropertyOp21
 70
     1
102
RTVSPropertyOp22
 70
     1
102
RTVSPropertyOp23
 70
     1
102
RTVSPropertyOp24
 70
     1
102
RTVSPropertyOp25
 70
     1
102
RTVSPropertyOp26
 70
     1
102
RTVSPropertyOp27
 70
     1
102
RTVSPropertyOp28
 70
     1
102
RTVSPropertyOp29
 70
     1
102
RTVSPropertyOp30
 70
     1
102
RTVSPropertyOp31
 70
     1
102
RTVSPropertyOp32
 70
     1
  0
XRECORD
  5
626
102
{ACAD_REACTORS
330
625
102
}
330
625
100
AcDbXrecord
280
     1
102
RTVSPropertyOp0
 70
     1
102
RTVSPropertyOp1
 70
     1
102
RTVSPropertyOp2
 70
     1
102
RTVSPropertyOp3
 70
     1
102
RTVSPropertyOp4
 70
     1
102
RTVSPropertyOp5
 70
     1
102
RTVSPropertyOp6
 70
     1
102
RTVSPropertyOp7
 70
     1
102
RTVSPropertyOp8
 70
     1
102
RTVSPropertyOp9
 70
     1
102
RTVSPropertyOp10
 70
     1
102
RTVSPropertyOp11
 70
     1
102
RTVSPropertyOp12
 70
     1
102
RTVSPropertyOp13
 70
     1
102
RTVSPropertyOp14
 70
     1
102
RTVSPropertyOp15
 70
     1
102
RTVSPropertyOp16
 70
     1
102
RTVSPropertyOp17
 70
     1
102
RTVSPropertyOp18
 70
     1
102
RTVSPropertyOp19
 70
     1
102
RTVSPropertyOp20
 70
     1
102
RTVSPropertyOp21
 70
     1
102
RTVSPropertyOp22
 70
     1
102
RTVSPropertyOp23
 70
     1
102
RTVSPropertyOp24
 70
     1
102
RTVSPropertyOp25
 70
     1
102
RTVSPropertyOp26
 70
     1
102
RTVSPropertyOp27
 70
     1
102
RTVSPropertyOp28
 70
     1
102
RTVSPropertyOp29
 70
     1
102
RTVSPropertyOp30
 70
     1
102
RTVSPropertyOp31
 70
     1
102
RTVSPropertyOp32
 70
     1
  0
ENDSEC
  0
EOF
