  0
SECTION
  2
HEADER
  9
$EXTMIN
 10
0.0
 20
0.0
 30
0.0
  9
$EXTMAX
 10
333.333333333
 20
235.714285714
 30
0.0
  9
$LIMMIN
 10
0.0
 20
0.0
  9
$LIMMAX
 10
333.333333333
 20
235.714285714
  9
$LTSCALE
 40
1.0
  9
$PDMODE
 70
     0
  0
ENDSEC
  0
SECTION
  2
TABLES
  0
TABLE
  2
LTYPE
 70
     3
  0
LTYPE
  2
CONTINUOUS
 70
    64
  3
Solid line
 72
    65
 73
     0
 40
0.0
  0
LTYPE
  2
LTYPE1
 70
    64
  3
HIDDEN
 72
    65
 73
     2
 40
1.5
 49
0.9
 49
-0.6
  0
LTYPE
  2
LTYPE2
 70
    64
  3
HIDDEN
 72
    65
 73
     2
 40
1.0
 49
0.6
 49
-0.4
  0
ENDTAB
  0
TABLE
  2
LAYER
 70
   128
  0
LAYER
  2
0
 70
     0
 62
     7
  6
CONTINUOUS
  0
LAYER
  2
1
 70
     0
 62
     7
  6
CONTINUOUS
  0
LAYER
  2
2
 70
     0
 62
     7
  6
CONTINUOUS
  0
LAYER
  2
3
 70
     0
 62
     7
  6
CONTINUOUS
  0
LAYER
  2
4
 70
     0
 62
     7
  6
CONTINUOUS
  0
LAYER
  2
5
 70
     0
 62
     7
  6
CONTINUOUS
  0
LAYER
  2
6
 70
     0
 62
     7
  6
CONTINUOUS
  0
LAYER
  2
7
 70
     0
 62
     7
  6
CONTINUOUS
  0
LAYER
  2
8
 70
     0
 62
     7
  6
CONTINUOUS
  0
LAYER
  2
9
 70
     0
 62
     7
  6
CONTINUOUS
  0
LAYER
  2
10
 70
     0
 62
     7
  6
CONTINUOUS
  0
LAYER
  2
11
 70
     0
 62
     7
  6
CONTINUOUS
  0
LAYER
  2
12
 70
     0
 62
     7
  6
CONTINUOUS
  0
LAYER
  2
13
 70
     0
 62
     7
  6
CONTINUOUS
  0
LAYER
  2
14
 70
     0
 62
     7
  6
CONTINUOUS
  0
LAYER
  2
15
 70
     0
 62
     7
  6
CONTINUOUS
  0
LAYER
  2
16
 70
     0
 62
     7
  6
CONTINUOUS
  0
LAYER
  2
17
 70
     0
 62
     7
  6
CONTINUOUS
  0
LAYER
  2
18
 70
     0
 62
     7
  6
CONTINUOUS
  0
LAYER
  2
19
 70
     0
 62
     7
  6
CONTINUOUS
  0
LAYER
  2
20
 70
     0
 62
     7
  6
CONTINUOUS
  0
LAYER
  2
21
 70
     0
 62
     7
  6
CONTINUOUS
  0
LAYER
  2
22
 70
     0
 62
     7
  6
CONTINUOUS
  0
LAYER
  2
23
 70
     0
 62
     7
  6
CONTINUOUS
  0
LAYER
  2
24
 70
     0
 62
     7
  6
CONTINUOUS
  0
LAYER
  2
25
 70
     0
 62
     7
  6
CONTINUOUS
  0
LAYER
  2
26
 70
     0
 62
     7
  6
CONTINUOUS
  0
LAYER
  2
27
 70
     0
 62
     7
  6
CONTINUOUS
  0
LAYER
  2
28
 70
     0
 62
     7
  6
CONTINUOUS
  0
LAYER
  2
29
 70
     0
 62
     7
  6
CONTINUOUS
  0
LAYER
  2
30
 70
     0
 62
     7
  6
CONTINUOUS
  0
LAYER
  2
31
 70
     0
 62
     7
  6
CONTINUOUS
  0
LAYER
  2
32
 70
     0
 62
     7
  6
CONTINUOUS
  0
LAYER
  2
33
 70
     0
 62
     7
  6
CONTINUOUS
  0
LAYER
  2
34
 70
     0
 62
     7
  6
CONTINUOUS
  0
LAYER
  2
35
 70
     0
 62
     7
  6
CONTINUOUS
  0
LAYER
  2
36
 70
     0
 62
     7
  6
CONTINUOUS
  0
LAYER
  2
37
 70
     0
 62
     7
  6
CONTINUOUS
  0
LAYER
  2
38
 70
     0
 62
     7
  6
CONTINUOUS
  0
LAYER
  2
39
 70
     0
 62
     7
  6
CONTINUOUS
  0
LAYER
  2
40
 70
     0
 62
     7
  6
CONTINUOUS
  0
LAYER
  2
41
 70
     0
 62
     7
  6
CONTINUOUS
  0
LAYER
  2
42
 70
     0
 62
     7
  6
CONTINUOUS
  0
LAYER
  2
43
 70
     0
 62
     7
  6
CONTINUOUS
  0
LAYER
  2
44
 70
     0
 62
     7
  6
CONTINUOUS
  0
LAYER
  2
45
 70
     0
 62
     7
  6
CONTINUOUS
  0
LAYER
  2
46
 70
     0
 62
     7
  6
CONTINUOUS
  0
LAYER
  2
47
 70
     0
 62
     7
  6
CONTINUOUS
  0
LAYER
  2
48
 70
     0
 62
     7
  6
CONTINUOUS
  0
LAYER
  2
49
 70
     0
 62
     7
  6
CONTINUOUS
  0
LAYER
  2
50
 70
     0
 62
     7
  6
CONTINUOUS
  0
LAYER
  2
51
 70
     0
 62
     7
  6
CONTINUOUS
  0
LAYER
  2
52
 70
     0
 62
     7
  6
CONTINUOUS
  0
LAYER
  2
53
 70
     0
 62
     7
  6
CONTINUOUS
  0
LAYER
  2
54
 70
     0
 62
     7
  6
CONTINUOUS
  0
LAYER
  2
55
 70
     0
 62
     7
  6
CONTINUOUS
  0
LAYER
  2
56
 70
     0
 62
     7
  6
CONTINUOUS
  0
LAYER
  2
57
 70
     0
 62
     7
  6
CONTINUOUS
  0
LAYER
  2
58
 70
     0
 62
     7
  6
CONTINUOUS
  0
LAYER
  2
59
 70
     0
 62
     7
  6
CONTINUOUS
  0
LAYER
  2
60
 70
     0
 62
     7
  6
CONTINUOUS
  0
LAYER
  2
61
 70
     0
 62
     7
  6
CONTINUOUS
  0
LAYER
  2
62
 70
     0
 62
     7
  6
CONTINUOUS
  0
LAYER
  2
63
 70
     0
 62
     7
  6
CONTINUOUS
  0
LAYER
  2
64
 70
     0
 62
     7
  6
CONTINUOUS
  0
LAYER
  2
65
 70
     0
 62
     7
  6
CONTINUOUS
  0
LAYER
  2
66
 70
     0
 62
     7
  6
CONTINUOUS
  0
LAYER
  2
67
 70
     0
 62
     7
  6
CONTINUOUS
  0
LAYER
  2
68
 70
     0
 62
     7
  6
CONTINUOUS
  0
LAYER
  2
69
 70
     0
 62
     7
  6
CONTINUOUS
  0
LAYER
  2
70
 70
     0
 62
     7
  6
CONTINUOUS
  0
LAYER
  2
71
 70
     0
 62
     7
  6
CONTINUOUS
  0
LAYER
  2
72
 70
     0
 62
     7
  6
CONTINUOUS
  0
LAYER
  2
73
 70
     0
 62
     7
  6
CONTINUOUS
  0
LAYER
  2
74
 70
     0
 62
     7
  6
CONTINUOUS
  0
LAYER
  2
75
 70
     0
 62
     7
  6
CONTINUOUS
  0
LAYER
  2
76
 70
     0
 62
     7
  6
CONTINUOUS
  0
LAYER
  2
77
 70
     0
 62
     7
  6
CONTINUOUS
  0
LAYER
  2
78
 70
     0
 62
     7
  6
CONTINUOUS
  0
LAYER
  2
79
 70
     0
 62
     7
  6
CONTINUOUS
  0
LAYER
  2
80
 70
     0
 62
     7
  6
CONTINUOUS
  0
LAYER
  2
81
 70
     0
 62
     7
  6
CONTINUOUS
  0
LAYER
  2
82
 70
     0
 62
     7
  6
CONTINUOUS
  0
LAYER
  2
83
 70
     0
 62
     7
  6
CONTINUOUS
  0
LAYER
  2
84
 70
     0
 62
     7
  6
CONTINUOUS
  0
LAYER
  2
85
 70
     0
 62
     7
  6
CONTINUOUS
  0
LAYER
  2
86
 70
     0
 62
     7
  6
CONTINUOUS
  0
LAYER
  2
87
 70
     0
 62
     7
  6
CONTINUOUS
  0
LAYER
  2
88
 70
     0
 62
     7
  6
CONTINUOUS
  0
LAYER
  2
89
 70
     0
 62
     7
  6
CONTINUOUS
  0
LAYER
  2
90
 70
     0
 62
     7
  6
CONTINUOUS
  0
LAYER
  2
91
 70
     0
 62
     7
  6
CONTINUOUS
  0
LAYER
  2
92
 70
     0
 62
     7
  6
CONTINUOUS
  0
LAYER
  2
93
 70
     0
 62
     7
  6
CONTINUOUS
  0
LAYER
  2
94
 70
     0
 62
     7
  6
CONTINUOUS
  0
LAYER
  2
95
 70
     0
 62
     7
  6
CONTINUOUS
  0
LAYER
  2
96
 70
     0
 62
     7
  6
CONTINUOUS
  0
LAYER
  2
97
 70
     0
 62
     7
  6
CONTINUOUS
  0
LAYER
  2
98
 70
     0
 62
     7
  6
CONTINUOUS
  0
LAYER
  2
99
 70
     0
 62
     7
  6
CONTINUOUS
  0
LAYER
  2
100
 70
     0
 62
     7
  6
CONTINUOUS
  0
LAYER
  2
101
 70
     0
 62
     7
  6
CONTINUOUS
  0
LAYER
  2
102
 70
     0
 62
     7
  6
CONTINUOUS
  0
LAYER
  2
103
 70
     0
 62
     7
  6
CONTINUOUS
  0
LAYER
  2
104
 70
     0
 62
     7
  6
CONTINUOUS
  0
LAYER
  2
105
 70
     0
 62
     7
  6
CONTINUOUS
  0
LAYER
  2
106
 70
     0
 62
     7
  6
CONTINUOUS
  0
LAYER
  2
107
 70
     0
 62
     7
  6
CONTINUOUS
  0
LAYER
  2
108
 70
     0
 62
     7
  6
CONTINUOUS
  0
LAYER
  2
109
 70
     0
 62
     7
  6
CONTINUOUS
  0
LAYER
  2
110
 70
     0
 62
     7
  6
CONTINUOUS
  0
LAYER
  2
111
 70
     0
 62
     7
  6
CONTINUOUS
  0
LAYER
  2
112
 70
     0
 62
     7
  6
CONTINUOUS
  0
LAYER
  2
113
 70
     0
 62
     7
  6
CONTINUOUS
  0
LAYER
  2
114
 70
     0
 62
     7
  6
CONTINUOUS
  0
LAYER
  2
115
 70
     0
 62
     7
  6
CONTINUOUS
  0
LAYER
  2
116
 70
     0
 62
     7
  6
CONTINUOUS
  0
LAYER
  2
117
 70
     0
 62
     7
  6
CONTINUOUS
  0
LAYER
  2
118
 70
     0
 62
     7
  6
CONTINUOUS
  0
LAYER
  2
119
 70
     0
 62
     7
  6
CONTINUOUS
  0
LAYER
  2
120
 70
     0
 62
     7
  6
CONTINUOUS
  0
LAYER
  2
121
 70
     0
 62
     7
  6
CONTINUOUS
  0
LAYER
  2
122
 70
     0
 62
     7
  6
CONTINUOUS
  0
LAYER
  2
123
 70
     0
 62
     7
  6
CONTINUOUS
  0
LAYER
  2
124
 70
     0
 62
     7
  6
CONTINUOUS
  0
LAYER
  2
125
 70
     0
 62
     7
  6
CONTINUOUS
  0
LAYER
  2
126
 70
     0
 62
     7
  6
CONTINUOUS
  0
LAYER
  2
127
 70
     0
 62
     7
  6
CONTINUOUS
  0
ENDTAB
  0
TABLE
  2
STYLE
 70
    10
  0
STYLE
  2
STANDARD
 70
     0
 40
0.0
 41
1.0
 50
0.0
 71
     0
 42
0.2
  3
txt
  4

  0
STYLE
  2
KANJI0
 70
     0
 40
2.0
 41
0.9
 50
0.0
 71
     0
 42
2.0
  3

  4
bigfont
  0
STYLE
  2
KANJI1
 70
     0
 40
2.5
 41
0.9
 50
0.0
 71
     0
 42
2.5
  3

  4
bigfont
  0
STYLE
  2
KANJI2
 70
     0
 40
2.2
 41
0.818181818
 50
0.0
 71
     0
 42
2.2
  3

  4
bigfont
  0
STYLE
  2
KANJI3
 70
     0
 40
3.12
 41
0.75
 50
0.0
 71
     0
 42
3.12
  3

  4
bigfont
  0
STYLE
  2
KANJI4
 70
     0
 40
1.794
 41
0.739130435
 50
0.0
 71
     0
 42
1.794
  3

  4
bigfont
  0
STYLE
  2
KANJI5
 70
     0
 40
1.6146
 41
0.739130435
 50
0.0
 71
     0
 42
1.6146
  3

  4
bigfont
  0
STYLE
  2
KANJI6
 70
     0
 40
1.6146
 41
0.739130435
 50
0.0
 71
     0
 42
1.6146
  3

  4
bigfont
  0
STYLE
  2
KANJI7
 70
     0
 40
2.3
 41
0.869565217
 50
0.0
 71
     0
 42
2.3
  3

  4
bigfont
  0
STYLE
  2
KANJI8
 70
     0
 40
3.0
 41
0.88
 50
0.0
 71
     0
 42
3.0
  3

  4
bigfont
  0
ENDTAB
  0
TABLE
  2
VIEW
 70
     0
  0
ENDTAB
  0
ENDSEC
  0
SECTION
  2
BLOCKS
  0
ENDSEC
  0
SECTION
  2
ENTITIES
  0
LINE
  8
0
  6
CONTINUOUS
 62
     3
 10
0.0
 20
121.88
 11
0.0
 21
122.38
  0
LINE
  8
0
  6
CONTINUOUS
 62
     3
 10
47.675
 20
94.78
 11
47.675
 21
96.28
  0
LINE
  8
0
  6
CONTINUOUS
 62
     3
 10
49.675
 20
215.28
 11
49.675
 21
96.28
  0
LINE
  8
0
  6
CONTINUOUS
 62
     3
 10
47.675
 20
96.28
 11
49.675
 21
96.28
  0
LINE
  8
0
  6
CONTINUOUS
 62
     3
 10
141.675
 20
215.28
 11
141.675
 21
96.28
  0
LINE
  8
0
  6
CONTINUOUS
 62
     3
 10
132.925
 20
216.28
 11
132.925
 21
215.28
  0
LINE
  8
0
  6
CONTINUOUS
 62
     3
 10
47.675
 20
94.78
 11
47.675
 21
94.28
  0
LINE
  8
0
  6
CONTINUOUS
 62
     3
 10
143.675
 20
94.28
 11
143.675
 21
96.28
  0
LINE
  8
0
  6
CONTINUOUS
 62
     3
 10
143.675
 20
94.78
 11
95.675
 21
94.78
  0
POINT
  8
0
  6
CONTINUOUS
 62
     3
 10
57.675
 20
94.78
  0
POINT
  8
0
  6
CONTINUOUS
 62
     3
 10
133.675
 20
94.78
  0
LINE
  8
0
  6
CONTINUOUS
 62
     3
 10
58.175
 20
215.28
 11
58.175
 21
216.28
  0
LINE
  8
0
  6
CONTINUOUS
 62
     3
 10
49.675
 20
215.28
 11
58.175
 21
215.28
  0
POINT
  8
0
  6
CONTINUOUS
 62
     3
 10
143.675
 20
94.78
  0
LINE
  8
0
  6
CONTINUOUS
 62
     3
 10
141.525
 20
215.28
 11
132.925
 21
215.28
  0
ARC
  8
0
  6
CONTINUOUS
 62
     3
 10
65.425
 20
103.28
 40
0.5
 50
180.000000001
 51
270.0
  0
LINE
  8
0
  6
CONTINUOUS
 62
     3
 10
125.925
 20
102.78
 11
65.425
 21
102.78
  0
ARC
  8
0
  6
CONTINUOUS
 62
     3
 10
125.925
 20
103.28
 40
0.5
 50
270.0
 51
0.0
  0
LINE
  8
0
  6
CONTINUOUS
 62
     3
 10
64.925
 20
103.23
 11
64.925
 21
119.28
  0
ARC
  8
0
  6
CONTINUOUS
 62
     3
 10
65.425
 20
119.28
 40
0.5
 50
90.0
 51
180.000000001
  0
LINE
  8
0
  6
CONTINUOUS
 62
     3
 10
65.425
 20
119.78
 11
125.925
 21
119.78
  0
ARC
  8
0
  6
CONTINUOUS
 62
     3
 10
125.925
 20
119.28
 40
0.5
 50
0.0
 51
90.0
  0
ARC
  8
0
  6
CONTINUOUS
 62
     3
 10
130.675
 20
121.28
 40
0.5
 50
270.0
 51
0.0
  0
LINE
  8
0
  6
CONTINUOUS
 62
     3
 10
130.675
 20
120.78
 11
126.425
 21
120.78
  0
ARC
  8
0
  6
CONTINUOUS
 62
     3
 10
130.675
 20
168.53
 40
0.5
 50
270.0
 51
0.0
  0
LINE
  8
0
  6
CONTINUOUS
 62
     3
 10
131.175
 20
121.28
 11
131.175
 21
166.53
  0
ARC
  8
0
  6
CONTINUOUS
 62
     3
 10
130.675
 20
166.53
 40
0.5
 50
0.0
 51
90.0
  0
ARC
  8
0
  6
CONTINUOUS
 62
     3
 10
130.675
 20
213.78
 40
0.5
 50
0.0
 51
90.0
  0
LINE
  8
0
  6
CONTINUOUS
 62
     3
 10
130.675
 20
214.28
 11
60.675
 21
214.28
  0
ARC
  8
0
  6
CONTINUOUS
 62
     3
 10
60.675
 20
213.78
 40
0.5
 50
90.0
 51
180.000000001
  0
LINE
  8
0
  6
CONTINUOUS
 62
     3
 10
126.425
 20
119.28
 11
126.425
 21
103.28
  0
LINE
  8
0
  6
CONTINUOUS
 62
     3
 10
60.175
 20
213.78
 11
60.175
 21
168.53
  0
LINE
  8
0
  6
CONTINUOUS
 62
     3
 10
130.675
 20
168.03
 11
60.675
 21
168.03
  0
ARC
  8
0
  6
CONTINUOUS
 62
     3
 10
60.675
 20
168.53
 40
0.5
 50
180.000000001
 51
270.0
  0
LINE
  8
0
  6
CONTINUOUS
 62
     3
 10
60.675
 20
167.03
 11
130.675
 21
167.03
  0
ARC
  8
0
  6
CONTINUOUS
 62
     3
 10
60.675
 20
166.53
 40
0.5
 50
90.0
 51
180.000000001
  0
LINE
  8
0
  6
CONTINUOUS
 62
     3
 10
126.975
 20
120.78
 11
60.675
 21
120.78
  0
LINE
  8
0
  6
CONTINUOUS
 62
     3
 10
60.175
 20
166.53
 11
60.175
 21
121.28
  0
ARC
  8
0
  6
CONTINUOUS
 62
     3
 10
60.675
 20
121.28
 40
0.5
 50
180.000000001
 51
270.0
  0
LINE
  8
0
  6
CONTINUOUS
 62
     3
 10
143.675
 20
96.28
 11
49.675
 21
96.28
  0
LINE
  8
0
  6
CONTINUOUS
 62
     3
 10
95.675
 20
94.78
 11
47.675
 21
94.78
  0
LINE
  8
0
  6
CONTINUOUS
 62
     3
 10
141.8
 20
96.405
 11
143.4
 21
96.405
  0
LINE
  8
0
  6
CONTINUOUS
 62
     3
 10
141.8
 20
216.405
 11
141.8
 21
134.405
  0
ARC
  8
0
  6
CONTINUOUS
 62
     3
 10
141.8
 20
216.405
 40
1.6
 50
0.0
 51
90.0
  0
LINE
  8
0
  6
CONTINUOUS
 62
     3
 10
141.8
 20
134.405
 11
141.8
 21
96.405
  0
LINE
  8
0
  6
CONTINUOUS
 62
     3
 10
143.4
 20
96.405
 11
143.4
 21
216.405
  0
ARC
  8
0
  6
CONTINUOUS
 62
     3
 10
49.55
 20
216.405
 40
1.6
 50
90.0
 51
180.0
  0
LINE
  8
0
  6
CONTINUOUS
 62
     3
 10
47.95
 20
96.405
 11
47.95
 21
216.405
  0
LINE
  8
0
  6
CONTINUOUS
 62
     3
 10
49.55
 20
216.405
 11
49.55
 21
96.28
  0
LINE
  8
0
  6
CONTINUOUS
 62
     3
 10
58.175
 20
216.28
 11
132.925
 21
216.28
  0
LINE
  8
0
  6
CONTINUOUS
 62
     3
 10
209.375
 20
94.28
 11
209.875
 21
94.28
  0
LINE
  8
0
  6
CONTINUOUS
 62
     3
 10
212.875
 20
94.78
 11
212.875
 21
96.28
  0
LINE
  8
0
  6
CONTINUOUS
 62
     3
 10
212.875
 20
96.28
 11
211.375
 21
96.28
  0
LINE
  8
0
  6
CONTINUOUS
 62
     3
 10
204.875
 20
96.28
 11
204.875
 21
99.28
  0
LINE
  8
0
  6
CONTINUOUS
 62
     3
 10
204.875
 20
99.28
 11
200.875
 21
99.28
  0
LINE
  8
0
  6
CONTINUOUS
 62
     3
 10
200.875
 20
99.28
 11
200.875
 21
96.28
  0
LINE
  8
0
  6
CONTINUOUS
 62
     3
 10
168.375
 20
94.28
 11
167.875
 21
94.28
  0
LINE
  8
0
  6
CONTINUOUS
 62
     3
 10
164.875
 20
94.78
 11
164.875
 21
96.28
  0
LINE
  8
0
  6
CONTINUOUS
 62
     3
 10
166.375
 20
96.28
 11
166.375
 21
216.28
  0
LINE
  8
0
  6
CONTINUOUS
 62
     3
 10
172.875
 20
96.28
 11
172.875
 21
99.28
  0
LINE
  8
0
  6
CONTINUOUS
 62
     3
 10
172.875
 20
99.28
 11
176.875
 21
99.28
  0
LINE
  8
0
  6
CONTINUOUS
 62
     3
 10
176.875
 20
99.28
 11
176.875
 21
96.28
  0
LINE
  8
0
  6
CONTINUOUS
 62
     3
 10
183.375
 20
216.28
 11
183.375
 21
215.28
  0
LINE
  8
0
  6
CONTINUOUS
 62
     3
 10
201.375
 20
113.78
 11
201.375
 21
106.78
  0
LINE
  8
0
  6
CONTINUOUS
 62
     3
 10
209.875
 20
94.78
 11
212.875
 21
94.78
  0
LINE
  8
0
  6
CONTINUOUS
 62
     3
 10
188.875
 20
94.28
 11
209.875
 21
94.28
  0
LINE
  8
0
  6
CONTINUOUS
 62
     3
 10
167.875
 20
94.78
 11
164.875
 21
94.78
  0
LINE
  8
0
  6
CONTINUOUS
 62
     3
 10
188.875
 20
94.28
 11
167.875
 21
94.28
  0
LINE
  8
0
  6
CONTINUOUS
 62
     3
 10
164.875
 20
96.28
 11
172.875
 21
96.28
  0
LINE
  8
0
  6
CONTINUOUS
 62
     3
 10
200.625
 20
96.28
 11
172.875
 21
96.28
  0
LINE
  8
0
  6
CONTINUOUS
 62
     3
 10
200.875
 20
96.28
 11
211.875
 21
96.28
  0
LINE
  8
0
  6
CONTINUOUS
 62
     3
 10
195.125
 20
146.28
 11
200.125
 21
146.28
  0
LINE
  8
0
  6
CONTINUOUS
 62
     3
 10
200.125
 20
118.28
 11
195.125
 21
118.28
  0
LINE
  8
0
  6
CONTINUOUS
 62
     3
 10
169.375
 20
127.78
 11
171.125
 21
127.78
  0
LINE
  8
0
  6
CONTINUOUS
 62
     3
 10
172.375
 20
127.78
 11
174.125
 21
127.78
  0
LINE
  8
0
  6
CONTINUOUS
 62
     3
 10
208.375
 20
127.78
 11
206.625
 21
127.78
  0
LINE
  8
0
  6
CONTINUOUS
 62
     3
 10
205.375
 20
127.78
 11
203.625
 21
127.78
  0
LINE
  8
0
  6
CONTINUOUS
 62
     3
 10
170.375
 20
213.28
 11
168.375
 21
213.28
  0
LINE
  8
0
  6
CONTINUOUS
 62
     3
 10
176.375
 20
205.78
 11
178.125
 21
205.78
  0
LINE
  8
0
  6
CONTINUOUS
 62
     3
 10
176.375
 20
188.28
 11
176.375
 21
205.78
  0
LINE
  8
0
  6
CONTINUOUS
 62
     3
 10
178.125
 20
205.78
 11
178.125
 21
188.03
  0
LINE
  8
0
  6
CONTINUOUS
 62
     3
 10
176.375
 20
170.53
 11
176.375
 21
188.28
  0
LINE
  8
0
  6
CONTINUOUS
 62
     3
 10
178.125
 20
188.28
 11
178.125
 21
170.78
  0
LINE
  8
0
  6
CONTINUOUS
 62
     3
 10
178.125
 20
190.78
 11
176.375
 21
190.78
  0
LINE
  8
0
  6
CONTINUOUS
 62
     3
 10
176.375
 20
185.78
 11
178.125
 21
185.78
  0
LINE
  8
0
  6
CONTINUOUS
 62
     3
 10
178.125
 20
170.78
 11
176.375
 21
170.78
  0
LINE
  8
0
  6
CONTINUOUS
 62
     3
 10
178.125
 20
165.78
 11
176.375
 21
165.78
  0
LINE
  8
0
  6
CONTINUOUS
 62
     3
 10
176.375
 20
150.78
 11
178.125
 21
150.78
  0
LINE
  8
0
  6
CONTINUOUS
 62
     3
 10
176.375
 20
170.78
 11
176.375
 21
150.78
  0
LINE
  8
0
  6
CONTINUOUS
 62
     3
 10
178.125
 20
150.78
 11
178.125
 21
170.78
  0
LINE
  8
0
  6
CONTINUOUS
 62
     3
 10
179.375
 20
205.78
 11
181.125
 21
205.78
  0
LINE
  8
0
  6
CONTINUOUS
 62
     3
 10
179.375
 20
188.28
 11
179.375
 21
205.78
  0
LINE
  8
0
  6
CONTINUOUS
 62
     3
 10
181.125
 20
205.78
 11
181.125
 21
188.03
  0
LINE
  8
0
  6
CONTINUOUS
 62
     3
 10
179.375
 20
170.53
 11
179.375
 21
188.28
  0
LINE
  8
0
  6
CONTINUOUS
 62
     3
 10
181.125
 20
188.28
 11
181.125
 21
170.78
  0
LINE
  8
0
  6
CONTINUOUS
 62
     3
 10
181.125
 20
190.78
 11
179.375
 21
190.78
  0
LINE
  8
0
  6
CONTINUOUS
 62
     3
 10
179.375
 20
185.78
 11
181.125
 21
185.78
  0
LINE
  8
0
  6
CONTINUOUS
 62
     3
 10
181.125
 20
170.78
 11
179.375
 21
170.78
  0
LINE
  8
0
  6
CONTINUOUS
 62
     3
 10
181.125
 20
165.78
 11
179.375
 21
165.78
  0
LINE
  8
0
  6
CONTINUOUS
 62
     3
 10
179.375
 20
150.78
 11
181.125
 21
150.78
  0
LINE
  8
0
  6
CONTINUOUS
 62
     3
 10
179.375
 20
170.78
 11
179.375
 21
150.78
  0
LINE
  8
0
  6
CONTINUOUS
 62
     3
 10
181.125
 20
150.78
 11
181.125
 21
170.78
  0
LINE
  8
0
  6
CONTINUOUS
 62
     3
 10
182.375
 20
188.28
 11
182.375
 21
205.78
  0
LINE
  8
0
  6
CONTINUOUS
 62
     3
 10
182.375
 20
170.53
 11
182.375
 21
188.28
  0
LINE
  8
0
  6
CONTINUOUS
 62
     3
 10
182.375
 20
170.78
 11
182.375
 21
150.78
  0
LINE
  8
0
  6
CONTINUOUS
 62
     3
 10
168.375
 20
190.78
 11
170.375
 21
190.78
  0
LINE
  8
0
  6
CONTINUOUS
 62
     3
 10
170.375
 20
189.03
 11
168.375
 21
189.03
  0
LINE
  8
0
  6
CONTINUOUS
 62
     3
 10
168.375
 20
213.28
 11
168.375
 21
190.78
  0
LINE
  8
0
  6
CONTINUOUS
 62
     3
 10
170.375
 20
190.78
 11
170.375
 21
213.28
  0
LINE
  8
0
  6
CONTINUOUS
 62
     3
 10
168.375
 20
189.03
 11
168.375
 21
186.28
  0
LINE
  8
0
  6
CONTINUOUS
 62
     3
 10
170.375
 20
186.28
 11
170.375
 21
189.03
  0
LINE
  8
0
  6
CONTINUOUS
 62
     3
 10
170.375
 20
167.53
 11
168.375
 21
167.53
  0
LINE
  8
0
  6
CONTINUOUS
 62
     3
 10
168.375
 20
165.78
 11
170.375
 21
165.78
  0
LINE
  8
0
  6
CONTINUOUS
 62
     3
 10
168.375
 20
167.53
 11
168.375
 21
186.28
  0
LINE
  8
0
  6
CONTINUOUS
 62
     3
 10
170.375
 20
186.28
 11
170.375
 21
167.53
  0
LINE
  8
0
  6
CONTINUOUS
 62
     3
 10
170.375
 20
161.53
 11
170.375
 21
142.28
  0
LINE
  8
0
  6
CONTINUOUS
 62
     3
 10
170.375
 20
142.28
 11
168.375
 21
142.28
  0
LINE
  8
0
  6
CONTINUOUS
 62
     3
 10
168.375
 20
142.28
 11
168.375
 21
161.53
  0
LINE
  8
0
  6
CONTINUOUS
 62
     3
 10
168.375
 20
161.53
 11
168.375
 21
165.78
  0
LINE
  8
0
  6
CONTINUOUS
 62
     3
 10
170.375
 20
165.78
 11
170.375
 21
161.03
  0
LINE
  8
0
  6
CONTINUOUS
 62
     3
 10
207.375
 20
213.28
 11
209.375
 21
213.28
  0
LINE
  8
0
  6
CONTINUOUS
 62
     3
 10
201.375
 20
205.78
 11
199.625
 21
205.78
  0
LINE
  8
0
  6
CONTINUOUS
 62
     3
 10
201.375
 20
188.28
 11
201.375
 21
205.78
  0
LINE
  8
0
  6
CONTINUOUS
 62
     3
 10
199.625
 20
205.78
 11
199.625
 21
188.03
  0
LINE
  8
0
  6
CONTINUOUS
 62
     3
 10
201.375
 20
170.53
 11
201.375
 21
188.28
  0
LINE
  8
0
  6
CONTINUOUS
 62
     3
 10
199.625
 20
188.28
 11
199.625
 21
170.78
  0
LINE
  8
0
  6
CONTINUOUS
 62
     3
 10
199.625
 20
190.78
 11
201.375
 21
190.78
  0
LINE
  8
0
  6
CONTINUOUS
 62
     3
 10
201.375
 20
185.78
 11
199.625
 21
185.78
  0
LINE
  8
0
  6
CONTINUOUS
 62
     3
 10
199.625
 20
170.78
 11
201.375
 21
170.78
  0
LINE
  8
0
  6
CONTINUOUS
 62
     3
 10
199.625
 20
165.78
 11
201.375
 21
165.78
  0
LINE
  8
0
  6
CONTINUOUS
 62
     3
 10
201.375
 20
150.78
 11
199.625
 21
150.78
  0
LINE
  8
0
  6
CONTINUOUS
 62
     3
 10
201.375
 20
170.78
 11
201.375
 21
150.78
  0
LINE
  8
0
  6
CONTINUOUS
 62
     3
 10
199.625
 20
150.78
 11
199.625
 21
170.78
  0
LINE
  8
0
  6
CONTINUOUS
 62
     3
 10
198.375
 20
205.78
 11
196.625
 21
205.78
  0
LINE
  8
0
  6
CONTINUOUS
 62
     3
 10
198.375
 20
188.28
 11
198.375
 21
205.78
  0
LINE
  8
0
  6
CONTINUOUS
 62
     3
 10
196.625
 20
205.78
 11
196.625
 21
188.03
  0
LINE
  8
0
  6
CONTINUOUS
 62
     3
 10
198.375
 20
170.53
 11
198.375
 21
188.28
  0
LINE
  8
0
  6
CONTINUOUS
 62
     3
 10
196.625
 20
188.28
 11
196.625
 21
170.78
  0
LINE
  8
0
  6
CONTINUOUS
 62
     3
 10
196.625
 20
190.78
 11
198.375
 21
190.78
  0
LINE
  8
0
  6
CONTINUOUS
 62
     3
 10
198.375
 20
185.78
 11
196.625
 21
185.78
  0
LINE
  8
0
  6
CONTINUOUS
 62
     3
 10
196.625
 20
170.78
 11
198.375
 21
170.78
  0
LINE
  8
0
  6
CONTINUOUS
 62
     3
 10
196.625
 20
165.78
 11
198.375
 21
165.78
  0
LINE
  8
0
  6
CONTINUOUS
 62
     3
 10
198.375
 20
150.78
 11
196.625
 21
150.78
  0
LINE
  8
0
  6
CONTINUOUS
 62
     3
 10
198.375
 20
170.78
 11
198.375
 21
150.78
  0
LINE
  8
0
  6
CONTINUOUS
 62
     3
 10
196.625
 20
150.78
 11
196.625
 21
170.78
  0
LINE
  8
0
  6
CONTINUOUS
 62
     3
 10
195.375
 20
188.28
 11
195.375
 21
205.78
  0
LINE
  8
0
  6
CONTINUOUS
 62
     3
 10
195.375
 20
170.53
 11
195.375
 21
188.28
  0
LINE
  8
0
  6
CONTINUOUS
 62
     3
 10
195.375
 20
170.78
 11
195.375
 21
150.78
  0
LINE
  8
0
  6
CONTINUOUS
 62
     3
 10
209.375
 20
190.78
 11
207.375
 21
190.78
  0
LINE
  8
0
  6
CONTINUOUS
 62
     3
 10
207.375
 20
189.03
 11
209.375
 21
189.03
  0
LINE
  8
0
  6
CONTINUOUS
 62
     3
 10
209.375
 20
213.28
 11
209.375
 21
190.78
  0
LINE
  8
0
  6
CONTINUOUS
 62
     3
 10
207.375
 20
190.78
 11
207.375
 21
213.28
  0
LINE
  8
0
  6
CONTINUOUS
 62
     3
 10
209.375
 20
189.03
 11
209.375
 21
186.28
  0
LINE
  8
0
  6
CONTINUOUS
 62
     3
 10
207.375
 20
186.28
 11
207.375
 21
189.03
  0
LINE
  8
0
  6
CONTINUOUS
 62
     3
 10
207.375
 20
167.53
 11
209.375
 21
167.53
  0
LINE
  8
0
  6
CONTINUOUS
 62
     3
 10
209.375
 20
165.78
 11
207.375
 21
165.78
  0
LINE
  8
0
  6
CONTINUOUS
 62
     3
 10
209.375
 20
167.53
 11
209.375
 21
186.28
  0
LINE
  8
0
  6
CONTINUOUS
 62
     3
 10
207.375
 20
186.28
 11
207.375
 21
167.53
  0
LINE
  8
0
  6
CONTINUOUS
 62
     3
 10
207.375
 20
161.53
 11
207.375
 21
142.28
  0
LINE
  8
0
  6
CONTINUOUS
 62
     3
 10
207.375
 20
142.28
 11
209.375
 21
142.28
  0
LINE
  8
0
  6
CONTINUOUS
 62
     3
 10
209.375
 20
142.28
 11
209.375
 21
161.53
  0
LINE
  8
0
  6
CONTINUOUS
 62
     3
 10
209.375
 20
161.53
 11
209.375
 21
165.78
  0
LINE
  8
0
  6
CONTINUOUS
 62
     3
 10
207.375
 20
165.78
 11
207.375
 21
161.03
  0
LINE
  8
0
  6
CONTINUOUS
 62
     3
 10
176.375
 20
127.78
 11
178.125
 21
127.78
  0
LINE
  8
0
  6
CONTINUOUS
 62
     3
 10
179.375
 20
127.78
 11
181.125
 21
127.78
  0
LINE
  8
0
  6
CONTINUOUS
 62
     3
 10
171.125
 20
102.78
 11
169.375
 21
102.78
  0
LINE
  8
0
  6
CONTINUOUS
 62
     3
 10
174.125
 20
102.78
 11
172.375
 21
102.78
  0
LINE
  8
0
  6
CONTINUOUS
 62
     3
 10
178.125
 20
102.78
 11
176.375
 21
102.78
  0
LINE
  8
0
  6
CONTINUOUS
 62
     3
 10
181.125
 20
102.78
 11
179.375
 21
102.78
  0
LINE
  8
0
  6
CONTINUOUS
 62
     3
 10
174.125
 20
117.78
 11
172.375
 21
117.78
  0
LINE
  8
0
  6
CONTINUOUS
 62
     3
 10
169.375
 20
117.78
 11
171.125
 21
117.78
  0
LINE
  8
0
  6
CONTINUOUS
 62
     3
 10
181.125
 20
117.78
 11
179.375
 21
117.78
  0
LINE
  8
0
  6
CONTINUOUS
 62
     3
 10
176.375
 20
117.78
 11
178.125
 21
117.78
  0
LINE
  8
0
  6
CONTINUOUS
 62
     3
 10
172.375
 20
112.78
 11
174.125
 21
112.78
  0
LINE
  8
0
  6
CONTINUOUS
 62
     3
 10
171.125
 20
112.78
 11
169.375
 21
112.78
  0
LINE
  8
0
  6
CONTINUOUS
 62
     3
 10
179.375
 20
112.78
 11
181.125
 21
112.78
  0
LINE
  8
0
  6
CONTINUOUS
 62
     3
 10
178.125
 20
112.78
 11
176.375
 21
112.78
  0
LINE
  8
0
  6
CONTINUOUS
 62
     3
 10
203.625
 20
117.78
 11
205.375
 21
117.78
  0
LINE
  8
0
  6
CONTINUOUS
 62
     3
 10
208.375
 20
117.78
 11
206.625
 21
117.78
  0
LINE
  8
0
  6
CONTINUOUS
 62
     3
 10
205.375
 20
112.78
 11
203.625
 21
112.78
  0
LINE
  8
0
  6
CONTINUOUS
 62
     3
 10
206.625
 20
112.78
 11
208.375
 21
112.78
  0
LINE
  8
0
  6
CONTINUOUS
 62
     3
 10
206.625
 20
102.78
 11
208.375
 21
102.78
  0
LINE
  8
0
  6
CONTINUOUS
 62
     3
 10
203.625
 20
102.78
 11
205.375
 21
102.78
  0
LINE
  8
0
  6
CONTINUOUS
 62
     3
 10
182.375
 20
102.78
 11
182.375
 21
127.78
  0
LINE
  8
0
  6
CONTINUOUS
 62
     3
 10
181.125
 20
127.78
 11
181.125
 21
102.78
  0
LINE
  8
0
  6
CONTINUOUS
 62
     3
 10
179.375
 20
102.78
 11
179.375
 21
127.78
  0
LINE
  8
0
  6
CONTINUOUS
 62
     3
 10
178.125
 20
127.78
 11
178.125
 21
102.78
  0
LINE
  8
0
  6
CONTINUOUS
 62
     3
 10
176.375
 20
102.78
 11
176.375
 21
127.78
  0
LINE
  8
0
  6
CONTINUOUS
 62
     3
 10
174.125
 20
127.78
 11
174.125
 21
102.78
  0
LINE
  8
0
  6
CONTINUOUS
 62
     3
 10
172.375
 20
102.78
 11
172.375
 21
127.78
  0
LINE
  8
0
  6
CONTINUOUS
 62
     3
 10
171.125
 20
127.78
 11
171.125
 21
102.78
  0
LINE
  8
0
  6
CONTINUOUS
 62
     3
 10
169.375
 20
102.78
 11
169.375
 21
127.78
  0
LINE
  8
0
  6
CONTINUOUS
 62
     3
 10
164.875
 20
94.78
 11
165.125
 21
89.28
  0
LINE
  8
0
  6
CONTINUOUS
 62
     3
 10
165.125
 20
89.28
 11
212.625
 21
89.28
  0
LINE
  8
0
  6
CONTINUOUS
 62
     3
 10
212.625
 20
89.28
 11
212.875
 21
94.78
  0
LINE
  8
0
  6
CONTINUOUS
 62
     3
 10
209.875
 20
94.78
 11
209.875
 21
94.28
  0
LINE
  8
0
  6
CONTINUOUS
 62
     3
 10
167.875
 20
94.28
 11
167.875
 21
94.78
  0
LINE
  8
0
  6
CONTINUOUS
 62
     3
 10
195.125
 20
96.28
 11
184.125
 21
96.28
  0
LINE
  8
0
  6
CONTINUOUS
 62
     3
 10
182.375
 20
205.78
 11
183.375
 21
205.78
  0
LINE
  8
0
  6
CONTINUOUS
 62
     3
 10
183.375
 20
190.78
 11
182.375
 21
190.78
  0
LINE
  8
0
  6
CONTINUOUS
 62
     3
 10
195.375
 20
205.78
 11
194.375
 21
205.78
  0
LINE
  8
0
  6
CONTINUOUS
 62
     3
 10
194.375
 20
190.78
 11
195.375
 21
190.78
  0
LINE
  8
0
  6
CONTINUOUS
 62
     3
 10
195.375
 20
185.78
 11
194.375
 21
185.78
  0
LINE
  8
0
  6
CONTINUOUS
 62
     3
 10
182.375
 20
185.78
 11
183.375
 21
185.78
  0
LINE
  8
0
  6
CONTINUOUS
 62
     3
 10
194.375
 20
170.78
 11
195.375
 21
170.78
  0
LINE
  8
0
  6
CONTINUOUS
 62
     3
 10
194.375
 20
165.78
 11
195.375
 21
165.78
  0
LINE
  8
0
  6
CONTINUOUS
 62
     3
 10
183.375
 20
170.78
 11
182.375
 21
170.78
  0
LINE
  8
0
  6
CONTINUOUS
 62
     3
 10
183.375
 20
165.78
 11
182.375
 21
165.78
  0
LINE
  8
0
  6
CONTINUOUS
 62
     3
 10
182.375
 20
150.78
 11
183.375
 21
150.78
  0
LINE
  8
0
  6
CONTINUOUS
 62
     3
 10
195.375
 20
150.78
 11
194.375
 21
150.78
  0
LINE
  8
0
  6
CONTINUOUS
 62
     3
 10
182.375
 20
127.78
 11
183.375
 21
127.78
  0
LINE
  8
0
  6
CONTINUOUS
 62
     3
 10
183.375
 20
117.78
 11
182.375
 21
117.78
  0
LINE
  8
0
  6
CONTINUOUS
 62
     3
 10
182.375
 20
112.78
 11
183.375
 21
112.78
  0
LINE
  8
0
  6
CONTINUOUS
 62
     3
 10
183.375
 20
102.78
 11
182.375
 21
102.78
  0
LINE
  8
0
  6
CONTINUOUS
 62
     3
 10
188.875
 20
134.28
 11
186.875
 21
134.28
  0
LINE
  8
0
  6
CONTINUOUS
 62
     3
 10
190.875
 20
134.28
 11
188.875
 21
134.28
  0
LINE
  8
0
  6
CONTINUOUS
 62
     3
 10
188.875
 20
132.78
 11
190.875
 21
132.78
  0
LINE
  8
0
  6
CONTINUOUS
 62
     3
 10
188.875
 20
132.78
 11
186.875
 21
132.78
  0
LINE
  8
0
  6
CONTINUOUS
 62
     3
 10
183.375
 20
145.28
 11
183.375
 21
216.28
  0
LINE
  8
0
  6
CONTINUOUS
 62
     3
 10
194.375
 20
113.78
 11
201.375
 21
113.78
  0
LINE
  8
0
  6
CONTINUOUS
 62
     3
 10
201.375
 20
106.78
 11
194.375
 21
106.78
  0
LINE
  8
0
  6
CONTINUOUS
 62
     3
 10
186.875
 20
123.63
 11
190.625
 21
123.63
  0
LINE
  8
0
  6
CONTINUOUS
 62
     3
 10
183.375
 20
96.63
 11
194.375
 21
96.63
  0
LINE
  8
0
  6
CONTINUOUS
 62
     3
 10
166.375
 20
215.28
 11
183.375
 21
215.28
  0
LINE
  8
0
  6
CONTINUOUS
 62
     3
 10
211.25
 20
215.28
 11
194.375
 21
215.28
  0
LINE
  8
1
  6
CONTINUOUS
 62
     4
 10
166.375
 20
95.93
 11
166.375
 21
74.78
  0
LINE
  8
1
  6
CONTINUOUS
 62
     4
 10
211.375
 20
95.93
 11
211.375
 21
74.78
  0
LINE
  8
0
  6
LTYPE1
 62
     1
 10
95.675
 20
158.28
 11
75.675
 21
158.28
  0
ARC
  8
0
  6
LTYPE1
 62
     1
 10
75.675
 20
157.28
 40
1.0
 50
90.0
 51
180.0
  0
ARC
  8
0
  6
LTYPE1
 62
     1
 10
75.675
 20
146.28
 40
1.0
 50
180.0
 51
270.0
  0
LINE
  8
0
  6
LTYPE1
 62
     1
 10
75.675
 20
145.28
 11
95.675
 21
145.28
  0
LINE
  8
0
  6
LTYPE1
 62
     1
 10
74.675
 20
157.28
 11
74.675
 21
146.28
  0
ARC
  8
0
  6
LTYPE1
 62
     1
 10
95.675
 20
146.28
 40
1.0
 50
270.0
 51
0.0
  0
LINE
  8
0
  6
LTYPE1
 62
     1
 10
96.675
 20
146.28
 11
96.675
 21
157.28
  0
ARC
  8
0
  6
LTYPE1
 62
     1
 10
95.675
 20
157.28
 40
1.0
 50
0.0
 51
90.0
  0
LINE
  8
0
  6
CONTINUOUS
 62
     4
 10
132.783805854
 20
80.88
 11
40.783805854
 21
80.88
  0
LINE
  8
0
  6
CONTINUOUS
 62
     4
 10
40.783805854
 20
80.88
 11
42.715657507
 21
80.36236191
  0
LINE
  8
0
  6
CONTINUOUS
 62
     4
 10
40.783805854
 20
80.88
 11
42.715657507
 21
81.39763809
  0
LINE
  8
0
  6
CONTINUOUS
 62
     4
 10
49.425
 20
95.846987298
 11
40.283805854
 21
80.013974596
  0
LINE
  8
0
  6
CONTINUOUS
 62
     4
 10
141.425
 20
95.846987298
 11
132.283805854
 21
80.013974596
  0
LINE
  8
0
  6
CONTINUOUS
 62
     4
 10
132.783805854
 20
80.88
 11
130.851954202
 21
81.39763809
  0
LINE
  8
0
  6
CONTINUOUS
 62
     4
 10
132.783805854
 20
80.88
 11
130.851954202
 21
80.36236191
  0
TEXT
  8
0
  6
CONTINUOUS
 62
     4
 10
84.983805854
 20
81.88
 30
0.0
 40
2.0
  1
９２
 50
0.0
 41
0.9
 51
0.0
  7
KANJI0
  0
TEXT
  8
0
  6
CONTINUOUS
 62
     4
 10
77.475
 20
153.03
 30
0.0
 40
2.5
  1
角孔
 50
0.0
 41
0.9
 51
0.0
  7
KANJI1
  0
LINE
  8
0
  6
CONTINUOUS
 62
     3
 10
49.925
 20
215.28
 11
49.925
 21
217.28
  0
LINE
  8
0
  6
CONTINUOUS
 62
     3
 10
53.675
 20
215.28
 11
49.925
 21
215.28
  0
LINE
  8
0
  6
CONTINUOUS
 62
     3
 10
141.425
 20
217.28
 11
95.675
 21
217.28
  0
LINE
  8
0
  6
CONTINUOUS
 62
     3
 10
49.925
 20
217.28
 11
95.675
 21
217.28
  0
LINE
  8
0
  6
CONTINUOUS
 62
     3
 10
141.425
 20
215.28
 11
141.425
 21
217.28
  0
LINE
  8
0
  6
CONTINUOUS
 62
     3
 10
137.675
 20
215.28
 11
141.425
 21
215.28
  0
LINE
  8
0
  6
CONTINUOUS
 62
     3
 10
53.675
 20
215.28
 11
95.675
 21
215.28
  0
LINE
  8
0
  6
CONTINUOUS
 62
     3
 10
138.475
 20
215.28
 11
95.675
 21
215.28
  0
LINE
  8
0
  6
CONTINUOUS
 62
     3
 10
57.675
 20
216.28
 11
57.675
 21
215.28
  0
LINE
  8
0
  6
CONTINUOUS
 62
     3
 10
133.675
 20
216.28
 11
133.675
 21
215.28
  0
LINE
  8
0
  6
CONTINUOUS
 62
     3
 10
133.675
 20
216.28
 11
57.675
 21
216.28
  0
LINE
  8
0
  6
CONTINUOUS
 62
     3
 10
182.675
 20
222.28
 11
182.675
 21
235.78
  0
LINE
  8
0
  6
CONTINUOUS
 62
     3
 10
183.675
 20
222.28
 11
182.675
 21
222.28
  0
LINE
  8
0
  6
CONTINUOUS
 62
     3
 10
182.675
 20
235.78
 11
173.675
 21
235.78
  0
LINE
  8
0
  6
CONTINUOUS
 62
     3
 10
173.675
 20
235.78
 11
173.675
 21
233.78
  0
LINE
  8
0
  6
CONTINUOUS
 62
     3
 10
173.675
 20
233.78
 11
172.175
 21
229.78
  0
LINE
  8
0
  6
CONTINUOUS
 62
     3
 10
172.175
 20
222.28
 11
172.175
 21
229.78
  0
LINE
  8
0
  6
CONTINUOUS
 62
     3
 10
171.175
 20
222.28
 11
172.175
 21
222.28
  0
LINE
  8
0
  6
CONTINUOUS
 62
     3
 10
195.075
 20
222.28
 11
195.075
 21
235.78
  0
LINE
  8
0
  6
CONTINUOUS
 62
     3
 10
194.075
 20
222.28
 11
195.075
 21
222.28
  0
LINE
  8
0
  6
CONTINUOUS
 62
     3
 10
195.075
 20
235.78
 11
204.075
 21
235.78
  0
LINE
  8
0
  6
CONTINUOUS
 62
     3
 10
204.075
 20
235.78
 11
204.075
 21
233.78
  0
LINE
  8
0
  6
CONTINUOUS
 62
     3
 10
204.075
 20
233.78
 11
205.575
 21
229.78
  0
LINE
  8
0
  6
CONTINUOUS
 62
     3
 10
205.575
 20
222.28
 11
205.575
 21
229.78
  0
LINE
  8
0
  6
CONTINUOUS
 62
     3
 10
206.575
 20
222.28
 11
205.575
 21
222.28
  0
LINE
  8
0
  6
CONTINUOUS
 62
     3
 10
183.375
 20
216.28
 11
183.375
 21
217.725
  0
LINE
  8
0
  6
CONTINUOUS
 62
     3
 10
183.375
 20
217.725
 11
183.375
 21
217.88
  0
LINE
  8
0
  6
CONTINUOUS
 62
     3
 10
171.175
 20
219.535
 11
171.175
 21
222.28
  0
LINE
  8
0
  6
CONTINUOUS
 62
     3
 10
166.375
 20
216.28
 11
166.375
 21
217.28
  0
LINE
  8
0
  6
CONTINUOUS
 62
     3
 10
211.375
 20
216.28
 11
211.345
 21
217.28
  0
LINE
  8
0
  6
CONTINUOUS
 62
     3
 10
183.675
 20
218.28
 11
182.955
 21
218.28
  0
LINE
  8
0
  6
CONTINUOUS
 62
     3
 10
194.375
 20
217.88
 11
194.375
 21
216.76
  0
LINE
  8
0
  6
CONTINUOUS
 62
     3
 10
194.075
 20
218.28
 11
194.075
 21
218.65
  0
LINE
  8
0
  6
CONTINUOUS
 62
     3
 10
195.075
 20
218.28
 11
194.075
 21
218.28
  0
LINE
  8
0
  6
CONTINUOUS
 62
     3
 10
186.275
 20
218.38
 11
186.275
 21
217.88
  0
LINE
  8
0
  6
CONTINUOUS
 62
     3
 10
191.475
 20
218.38
 11
191.475
 21
217.88
  0
LINE
  8
0
  6
CONTINUOUS
 62
     3
 10
188.875
 20
218.38
 11
185.875
 21
218.38
  0
LINE
  8
0
  6
CONTINUOUS
 62
     3
 10
185.875
 20
219.38
 11
185.875
 21
218.38
  0
ARC
  8
0
  6
CONTINUOUS
 62
     3
 10
186.875
 20
219.38
 40
1.0
 50
90.0
 51
180.0
  0
LINE
  8
0
  6
CONTINUOUS
 62
     3
 10
190.875
 20
220.38
 11
186.875
 21
220.38
  0
ARC
  8
0
  6
CONTINUOUS
 62
     3
 10
190.875
 20
219.38
 40
1.0
 50
0.0
 51
90.0
  0
LINE
  8
0
  6
CONTINUOUS
 62
     3
 10
188.875
 20
218.38
 11
191.875
 21
218.38
  0
LINE
  8
0
  6
CONTINUOUS
 62
     3
 10
191.875
 20
219.38
 11
191.875
 21
218.38
  0
LINE
  8
0
  6
CONTINUOUS
 62
     2
 10
76.075
 20
217.78
 11
81.175
 21
217.78
  0
LINE
  8
0
  6
CONTINUOUS
 62
     2
 10
86.275
 20
217.78
 11
81.175
 21
217.78
  0
LINE
  8
0
  6
CONTINUOUS
 62
     3
 10
129.175
 20
218.28
 11
129.175
 21
235.78
  0
LINE
  8
0
  6
CONTINUOUS
 62
     2
 10
129.175
 20
217.28
 11
129.175
 21
218.28
  0
LINE
  8
0
  6
CONTINUOUS
 62
     2
 10
73.085
 20
218.28
 11
73.085
 21
217.28
  0
LINE
  8
0
  6
CONTINUOUS
 62
     2
 10
86.275
 20
217.28
 11
86.275
 21
217.78
  0
LINE
  8
0
  6
CONTINUOUS
 62
     2
 10
76.075
 20
217.28
 11
76.075
 21
217.78
  0
LINE
  8
0
  6
CONTINUOUS
 62
     3
 10
73.085
 20
218.28
 11
73.085
 21
230.78
  0
LINE
  8
0
  6
CONTINUOUS
 62
     3
 10
73.085
 20
230.78
 11
60.265
 21
230.78
  0
LINE
  8
0
  6
CONTINUOUS
 62
     3
 10
60.265
 20
218.28
 11
60.265
 21
230.78
  0
LINE
  8
0
  6
CONTINUOUS
 62
     3
 10
66.675
 20
229.78
 11
65.175
 21
229.78
  0
LINE
  8
0
  6
CONTINUOUS
 62
     3
 10
65.175
 20
229.78
 11
65.175
 21
220.48
  0
LINE
  8
0
  6
CONTINUOUS
 62
     3
 10
66.675
 20
220.48
 11
65.175
 21
220.48
  0
LINE
  8
0
  6
CONTINUOUS
 62
     3
 10
66.675
 20
229.78
 11
68.175
 21
229.78
  0
LINE
  8
0
  6
CONTINUOUS
 62
     3
 10
68.175
 20
229.78
 11
68.175
 21
220.48
  0
LINE
  8
0
  6
CONTINUOUS
 62
     3
 10
66.675
 20
220.48
 11
68.175
 21
220.48
  0
LINE
  8
0
  6
CONTINUOUS
 62
     3
 10
70.485
 20
229.78
 11
68.985
 21
229.78
  0
LINE
  8
0
  6
CONTINUOUS
 62
     3
 10
68.985
 20
229.78
 11
68.985
 21
220.48
  0
LINE
  8
0
  6
CONTINUOUS
 62
     3
 10
70.485
 20
220.48
 11
68.985
 21
220.48
  0
LINE
  8
0
  6
CONTINUOUS
 62
     3
 10
70.485
 20
229.78
 11
71.985
 21
229.78
  0
LINE
  8
0
  6
CONTINUOUS
 62
     3
 10
71.985
 20
229.78
 11
71.985
 21
220.48
  0
LINE
  8
0
  6
CONTINUOUS
 62
     3
 10
70.485
 20
220.48
 11
71.985
 21
220.48
  0
LINE
  8
0
  6
CONTINUOUS
 62
     3
 10
62.865
 20
229.78
 11
64.365
 21
229.78
  0
LINE
  8
0
  6
CONTINUOUS
 62
     3
 10
64.365
 20
229.78
 11
64.365
 21
220.48
  0
LINE
  8
0
  6
CONTINUOUS
 62
     3
 10
62.865
 20
220.48
 11
64.365
 21
220.48
  0
LINE
  8
0
  6
CONTINUOUS
 62
     3
 10
62.865
 20
229.78
 11
61.365
 21
229.78
  0
LINE
  8
0
  6
CONTINUOUS
 62
     3
 10
61.365
 20
229.78
 11
61.365
 21
220.48
  0
LINE
  8
0
  6
CONTINUOUS
 62
     3
 10
62.865
 20
220.48
 11
61.365
 21
220.48
  0
LINE
  8
0
  6
CONTINUOUS
 62
     3
 10
60.265
 20
218.28
 11
73.085
 21
218.28
  0
LINE
  8
0
  6
CONTINUOUS
 62
     3
 10
60.265
 20
217.28
 11
60.265
 21
218.28
  0
LINE
  8
0
  6
CONTINUOUS
 62
     3
 10
124.675
 20
223.28
 11
124.675
 21
228.78
  0
LINE
  8
0
  6
CONTINUOUS
 62
     3
 10
124.675
 20
228.78
 11
128.675
 21
228.78
  0
LINE
  8
0
  6
CONTINUOUS
 62
     3
 10
125.075
 20
227.0
 11
125.075
 21
224.0
  0
LINE
  8
0
  6
CONTINUOUS
 62
     3
 10
125.075
 20
224.0
 11
128.275
 21
224.0
  0
LINE
  8
0
  6
CONTINUOUS
 62
     3
 10
128.275
 20
224.0
 11
128.275
 21
227.0
  0
LINE
  8
0
  6
CONTINUOUS
 62
     3
 10
124.675
 20
228.78
 11
125.075
 21
227.0
  0
LINE
  8
0
  6
CONTINUOUS
 62
     3
 10
128.675
 20
228.78
 11
128.275
 21
227.0
  0
LINE
  8
0
  6
CONTINUOUS
 62
     3
 10
125.075
 20
224.0
 11
124.675
 21
223.28
  0
LINE
  8
0
  6
CONTINUOUS
 62
     3
 10
128.275
 20
224.0
 11
128.675
 21
223.28
  0
LINE
  8
0
  6
CONTINUOUS
 62
     3
 10
128.675
 20
223.28
 11
124.675
 21
223.28
  0
LINE
  8
0
  6
CONTINUOUS
 62
     3
 10
128.675
 20
228.78
 11
128.675
 21
223.28
  0
LINE
  8
0
  6
CONTINUOUS
 62
     3
 10
125.075
 20
227.0
 11
128.275
 21
227.0
  0
LINE
  8
0
  6
CONTINUOUS
 62
     3
 10
119.675
 20
223.28
 11
119.675
 21
228.78
  0
LINE
  8
0
  6
CONTINUOUS
 62
     3
 10
119.675
 20
228.78
 11
123.675
 21
228.78
  0
LINE
  8
0
  6
CONTINUOUS
 62
     3
 10
120.075
 20
227.0
 11
120.075
 21
224.0
  0
LINE
  8
0
  6
CONTINUOUS
 62
     3
 10
120.075
 20
224.0
 11
123.275
 21
224.0
  0
LINE
  8
0
  6
CONTINUOUS
 62
     3
 10
123.275
 20
224.0
 11
123.275
 21
227.0
  0
LINE
  8
0
  6
CONTINUOUS
 62
     3
 10
119.675
 20
228.78
 11
120.075
 21
227.0
  0
LINE
  8
0
  6
CONTINUOUS
 62
     3
 10
123.675
 20
228.78
 11
123.275
 21
227.0
  0
LINE
  8
0
  6
CONTINUOUS
 62
     3
 10
120.075
 20
224.0
 11
119.675
 21
223.28
  0
LINE
  8
0
  6
CONTINUOUS
 62
     3
 10
123.275
 20
224.0
 11
123.675
 21
223.28
  0
LINE
  8
0
  6
CONTINUOUS
 62
     3
 10
123.675
 20
223.28
 11
119.675
 21
223.28
  0
LINE
  8
0
  6
CONTINUOUS
 62
     3
 10
123.675
 20
228.78
 11
123.675
 21
223.28
  0
LINE
  8
0
  6
CONTINUOUS
 62
     3
 10
120.075
 20
227.0
 11
123.275
 21
227.0
  0
LINE
  8
0
  6
CONTINUOUS
 62
     3
 10
114.675
 20
223.28
 11
114.675
 21
228.78
  0
LINE
  8
0
  6
CONTINUOUS
 62
     3
 10
114.675
 20
228.78
 11
118.675
 21
228.78
  0
LINE
  8
0
  6
CONTINUOUS
 62
     3
 10
115.075
 20
227.0
 11
115.075
 21
224.0
  0
LINE
  8
0
  6
CONTINUOUS
 62
     3
 10
115.075
 20
224.0
 11
118.275
 21
224.0
  0
LINE
  8
0
  6
CONTINUOUS
 62
     3
 10
118.275
 20
224.0
 11
118.275
 21
227.0
  0
LINE
  8
0
  6
CONTINUOUS
 62
     3
 10
114.675
 20
228.78
 11
115.075
 21
227.0
  0
LINE
  8
0
  6
CONTINUOUS
 62
     3
 10
118.675
 20
228.78
 11
118.275
 21
227.0
  0
LINE
  8
0
  6
CONTINUOUS
 62
     3
 10
115.075
 20
224.0
 11
114.675
 21
223.28
  0
LINE
  8
0
  6
CONTINUOUS
 62
     3
 10
118.275
 20
224.0
 11
118.675
 21
223.28
  0
LINE
  8
0
  6
CONTINUOUS
 62
     3
 10
118.675
 20
223.28
 11
114.675
 21
223.28
  0
LINE
  8
0
  6
CONTINUOUS
 62
     3
 10
118.675
 20
228.78
 11
118.675
 21
223.28
  0
LINE
  8
0
  6
CONTINUOUS
 62
     3
 10
115.075
 20
227.0
 11
118.275
 21
227.0
  0
LINE
  8
0
  6
CONTINUOUS
 62
     3
 10
109.675
 20
223.28
 11
109.675
 21
228.78
  0
LINE
  8
0
  6
CONTINUOUS
 62
     3
 10
109.675
 20
228.78
 11
113.675
 21
228.78
  0
LINE
  8
0
  6
CONTINUOUS
 62
     3
 10
110.075
 20
227.0
 11
110.075
 21
224.0
  0
LINE
  8
0
  6
CONTINUOUS
 62
     3
 10
110.075
 20
224.0
 11
113.275
 21
224.0
  0
LINE
  8
0
  6
CONTINUOUS
 62
     3
 10
113.275
 20
224.0
 11
113.275
 21
227.0
  0
LINE
  8
0
  6
CONTINUOUS
 62
     3
 10
109.675
 20
228.78
 11
110.075
 21
227.0
  0
LINE
  8
0
  6
CONTINUOUS
 62
     3
 10
113.675
 20
228.78
 11
113.275
 21
227.0
  0
LINE
  8
0
  6
CONTINUOUS
 62
     3
 10
110.075
 20
224.0
 11
109.675
 21
223.28
  0
LINE
  8
0
  6
CONTINUOUS
 62
     3
 10
113.275
 20
224.0
 11
113.675
 21
223.28
  0
LINE
  8
0
  6
CONTINUOUS
 62
     3
 10
113.675
 20
223.28
 11
109.675
 21
223.28
  0
LINE
  8
0
  6
CONTINUOUS
 62
     3
 10
113.675
 20
228.78
 11
113.675
 21
223.28
  0
LINE
  8
0
  6
CONTINUOUS
 62
     3
 10
110.075
 20
227.0
 11
113.275
 21
227.0
  0
LINE
  8
0
  6
CONTINUOUS
 62
     3
 10
104.675
 20
223.28
 11
104.675
 21
228.78
  0
LINE
  8
0
  6
CONTINUOUS
 62
     3
 10
104.675
 20
228.78
 11
108.675
 21
228.78
  0
LINE
  8
0
  6
CONTINUOUS
 62
     3
 10
105.075
 20
227.0
 11
105.075
 21
224.0
  0
LINE
  8
0
  6
CONTINUOUS
 62
     3
 10
105.075
 20
224.0
 11
108.275
 21
224.0
  0
LINE
  8
0
  6
CONTINUOUS
 62
     3
 10
108.275
 20
224.0
 11
108.275
 21
227.0
  0
LINE
  8
0
  6
CONTINUOUS
 62
     3
 10
104.675
 20
228.78
 11
105.075
 21
227.0
  0
LINE
  8
0
  6
CONTINUOUS
 62
     3
 10
108.675
 20
228.78
 11
108.275
 21
227.0
  0
LINE
  8
0
  6
CONTINUOUS
 62
     3
 10
105.075
 20
224.0
 11
104.675
 21
223.28
  0
LINE
  8
0
  6
CONTINUOUS
 62
     3
 10
108.275
 20
224.0
 11
108.675
 21
223.28
  0
LINE
  8
0
  6
CONTINUOUS
 62
     3
 10
108.675
 20
223.28
 11
104.675
 21
223.28
  0
LINE
  8
0
  6
CONTINUOUS
 62
     3
 10
108.675
 20
228.78
 11
108.675
 21
223.28
  0
LINE
  8
0
  6
CONTINUOUS
 62
     3
 10
105.075
 20
227.0
 11
108.275
 21
227.0
  0
LINE
  8
0
  6
CONTINUOUS
 62
     3
 10
129.175
 20
233.78
 11
102.786851852
 21
233.78
  0
LINE
  8
0
  6
CONTINUOUS
 62
     3
 10
129.175
 20
229.78
 11
103.445
 21
229.78
  0
LINE
  8
0
  6
CONTINUOUS
 62
     3
 10
98.175
 20
235.78
 11
98.175
 21
217.28
  0
LINE
  8
0
  6
CONTINUOUS
 62
     3
 10
102.435
 20
235.78
 11
129.175
 21
235.78
  0
LINE
  8
0
  6
CONTINUOUS
 62
     3
 10
129.175
 20
222.28
 11
101.875
 21
222.28
  0
LINE
  8
0
  6
CONTINUOUS
 62
     3
 10
129.175
 20
219.07
 11
101.675
 21
219.07
  0
LINE
  8
0
  6
CONTINUOUS
 62
     2
 10
102.385
 20
218.28
 11
129.175
 21
218.28
  0
LINE
  8
0
  6
CONTINUOUS
 62
     3
 10
78.175
 20
235.78
 11
98.175
 21
235.78
  0
LINE
  8
0
  6
CONTINUOUS
 62
     3
 10
98.175
 20
222.28
 11
78.175
 21
222.28
  0
LINE
  8
0
  6
CONTINUOUS
 62
     3
 10
98.175
 20
219.07
 11
78.175
 21
219.07
  0
LINE
  8
0
  6
CONTINUOUS
 62
     2
 10
78.175
 20
218.28
 11
98.175
 21
218.28
  0
LINE
  8
0
  6
CONTINUOUS
 62
     3
 10
78.175
 20
235.78
 11
78.175
 21
218.28
  0
LINE
  8
0
  6
CONTINUOUS
 62
     3
 10
102.103395062
 20
218.596419753
 11
103.267256245
 21
217.33
  0
LINE
  8
0
  6
CONTINUOUS
 62
     3
 10
73.175
 20
235.78
 11
63.175
 21
235.78
  0
LINE
  8
0
  6
CONTINUOUS
 62
     3
 10
63.175
 20
235.78
 11
63.175
 21
230.78
  0
LINE
  8
0
  6
CONTINUOUS
 62
     3
 10
73.175
 20
235.78
 11
73.175
 21
217.28
  0
LINE
  8
0
  6
CONTINUOUS
 62
     3
 10
63.175
 20
235.18
 11
73.175
 21
235.18
  0
LINE
  8
0
  6
CONTINUOUS
 62
     3
 10
78.175
 20
235.18
 11
98.175
 21
235.18
  0
LINE
  8
0
  6
CONTINUOUS
 62
     4
 10
62.675
 20
235.78
 11
29.26
 21
235.78
  0
LINE
  8
0
  6
CONTINUOUS
 62
     4
 10
49.425
 20
217.28
 11
36.725
 21
217.28
  0
LINE
  8
0
  6
CONTINUOUS
 62
     4
 10
30.51
 20
235.78
 11
38.225
 21
235.78
  0
LINE
  8
0
  6
CONTINUOUS
 62
     4
 10
37.975
 20
217.28
 11
38.41
 21
217.28
  0
LINE
  8
0
  6
CONTINUOUS
 62
     3
 10
143.675
 20
94.28
 11
143.425
 21
89.28
  0
LINE
  8
0
  6
CONTINUOUS
 62
     3
 10
143.425
 20
89.28
 11
47.925
 21
89.28
  0
LINE
  8
0
  6
CONTINUOUS
 62
     3
 10
47.925
 20
89.28
 11
47.675
 21
94.28
  0
LINE
  8
0
  6
CONTINUOUS
 62
     4
 10
37.475
 20
217.28
 11
37.022066671
 21
215.589629804
  0
LINE
  8
0
  6
CONTINUOUS
 62
     4
 10
37.475
 20
217.28
 11
37.927933329
 21
215.589629804
  0
LINE
  8
0
  6
CONTINUOUS
 62
     4
 10
37.475
 20
217.28
 11
37.475
 21
96.28
  0
LINE
  8
0
  6
CONTINUOUS
 62
     4
 10
37.475
 20
96.28
 11
37.927933329
 21
97.970370196
  0
LINE
  8
0
  6
CONTINUOUS
 62
     4
 10
37.475
 20
96.28
 11
37.022066671
 21
97.970370196
  0
LINE
  8
0
  6
CONTINUOUS
 62
     4
 10
47.175
 20
96.28
 11
36.725
 21
96.28
  0
TEXT
  8
0
  6
CONTINUOUS
 62
     4
 10
36.725
 20
154.08
 30
0.0
 40
2.2
  1
１２１
 50
90.0
 41
0.818181818
 51
0.0
  7
KANJI2
  0
LINE
  8
0
  6
CONTINUOUS
 62
     4
 10
47.425
 20
89.28
 11
36.725
 21
89.28
  0
LINE
  8
0
  6
CONTINUOUS
 62
     4
 10
37.475
 20
89.28
 11
37.927933329
 21
90.970370196
  0
LINE
  8
0
  6
CONTINUOUS
 62
     4
 10
37.475
 20
89.28
 11
37.022066671
 21
90.970370196
  0
LINE
  8
0
  6
CONTINUOUS
 62
     4
 10
37.475
 20
89.28
 11
37.475
 21
96.28
  0
LINE
  8
0
  6
CONTINUOUS
 62
     4
 10
37.475
 20
96.28
 11
37.022066671
 21
94.589629804
  0
LINE
  8
0
  6
CONTINUOUS
 62
     4
 10
37.475
 20
96.28
 11
37.927933329
 21
94.589629804
  0
TEXT
  8
0
  6
CONTINUOUS
 62
     4
 10
36.725
 20
91.88
 30
0.0
 40
2.2
  1
７
 50
90.0
 41
0.818181818
 51
0.0
  7
KANJI2
  0
LINE
  8
0
  6
CONTINUOUS
 62
     4
 10
36.225
 20
89.28
 11
30.275
 21
89.28
  0
LINE
  8
0
  6
CONTINUOUS
 62
     4
 10
31.025
 20
89.28
 11
31.477933329
 21
90.970370196
  0
LINE
  8
0
  6
CONTINUOUS
 62
     4
 10
31.025
 20
89.28
 11
30.572066671
 21
90.970370196
  0
LINE
  8
0
  6
CONTINUOUS
 62
     4
 10
31.025
 20
89.28
 11
31.025
 21
235.78
  0
LINE
  8
0
  6
CONTINUOUS
 62
     4
 10
31.025
 20
235.78
 11
30.572066671
 21
234.089629804
  0
LINE
  8
0
  6
CONTINUOUS
 62
     4
 10
31.025
 20
235.78
 11
31.477933329
 21
234.089629804
  0
LINE
  8
0
  6
CONTINUOUS
 62
     4
 10
30.51
 20
235.78
 11
31.775
 21
235.78
  0
TEXT
  8
0
  6
CONTINUOUS
 62
     4
 10
30.275
 20
158.03
 30
0.0
 40
2.2
  1
１４６．５
 50
90.0
 41
0.818181818
 51
0.0
  7
KANJI2
  0
LINE
  8
0
  6
CONTINUOUS
 62
     3
 10
49.55
 20
216.405
 11
50.0
 21
216.405
  0
LINE
  8
0
  6
CONTINUOUS
 62
     3
 10
141.8
 20
216.405
 11
141.4
 21
216.405
  0
LINE
  8
0
  6
CONTINUOUS
 62
     3
 10
131.875
 20
218.505
 11
131.875
 21
218.005
  0
LINE
  8
0
  6
CONTINUOUS
 62
     3
 10
134.475
 20
218.505
 11
131.475
 21
218.505
  0
LINE
  8
0
  6
CONTINUOUS
 62
     3
 10
131.475
 20
219.505
 11
131.475
 21
218.505
  0
ARC
  8
0
  6
CONTINUOUS
 62
     3
 10
132.475
 20
219.505
 40
1.0
 50
90.0
 51
180.0
  0
LINE
  8
0
  6
CONTINUOUS
 62
     3
 10
136.475
 20
220.505
 11
132.475
 21
220.505
  0
ARC
  8
0
  6
CONTINUOUS
 62
     3
 10
136.475
 20
219.505
 40
1.0
 50
0.0
 51
90.0
  0
LINE
  8
0
  6
CONTINUOUS
 62
     3
 10
59.475
 20
218.505
 11
59.475
 21
218.005
  0
LINE
  8
0
  6
CONTINUOUS
 62
     3
 10
58.875
 20
220.505
 11
54.875
 21
220.505
  0
ARC
  8
0
  6
CONTINUOUS
 62
     3
 10
58.875
 20
219.505
 40
1.0
 50
0.0
 51
90.0
  0
LINE
  8
0
  6
CONTINUOUS
 62
     3
 10
56.875
 20
218.505
 11
59.875
 21
218.505
  0
LINE
  8
0
  6
CONTINUOUS
 62
     3
 10
59.875
 20
219.505
 11
59.875
 21
218.505
  0
LINE
  8
0
  6
CONTINUOUS
 62
     3
 10
53.675
 20
217.28
 11
50.675
 21
217.28
  0
LINE
  8
0
  6
CONTINUOUS
 62
     3
 10
50.675
 20
218.28
 11
50.675
 21
217.28
  0
ARC
  8
0
  6
CONTINUOUS
 62
     3
 10
51.675
 20
218.28
 40
1.0
 50
90.0
 51
180.0
  0
LINE
  8
0
  6
CONTINUOUS
 62
     3
 10
55.675
 20
219.28
 11
51.675
 21
219.28
  0
ARC
  8
0
  6
CONTINUOUS
 62
     3
 10
55.675
 20
218.28
 40
1.0
 50
0.0
 51
90.0
  0
LINE
  8
0
  6
CONTINUOUS
 62
     3
 10
53.675
 20
217.28
 11
56.675
 21
217.28
  0
LINE
  8
0
  6
CONTINUOUS
 62
     3
 10
56.675
 20
218.28
 11
56.675
 21
217.28
  0
LINE
  8
0
  6
CONTINUOUS
 62
     3
 10
56.875
 20
217.28
 11
53.875
 21
217.28
  0
ARC
  8
0
  6
CONTINUOUS
 62
     3
 10
54.875
 20
219.505
 40
1.0
 50
90.0
 51
180.0
  0
LINE
  8
0
  6
CONTINUOUS
 62
     3
 10
53.875
 20
219.505
 11
53.875
 21
219.28
  0
LINE
  8
0
  6
CONTINUOUS
 62
     3
 10
137.675
 20
217.28
 11
140.675
 21
217.28
  0
LINE
  8
0
  6
CONTINUOUS
 62
     3
 10
140.675
 20
218.28
 11
140.675
 21
217.28
  0
ARC
  8
0
  6
CONTINUOUS
 62
     3
 10
139.675
 20
218.28
 40
1.0
 50
0.0
 51
90.0
  0
LINE
  8
0
  6
CONTINUOUS
 62
     3
 10
135.675
 20
219.28
 11
139.675
 21
219.28
  0
ARC
  8
0
  6
CONTINUOUS
 62
     3
 10
135.675
 20
218.28
 40
1.0
 50
90.0
 51
180.0
  0
LINE
  8
0
  6
CONTINUOUS
 62
     3
 10
137.675
 20
217.28
 11
134.675
 21
217.28
  0
LINE
  8
0
  6
CONTINUOUS
 62
     3
 10
134.675
 20
218.28
 11
134.675
 21
217.28
  0
LINE
  8
0
  6
CONTINUOUS
 62
     3
 10
134.475
 20
217.28
 11
137.475
 21
217.28
  0
LINE
  8
0
  6
CONTINUOUS
 62
     3
 10
56.675
 20
218.005
 11
60.05
 21
218.005
  0
LINE
  8
0
  6
CONTINUOUS
 62
     3
 10
49.55
 20
218.005
 11
50.675
 21
218.005
  0
LINE
  8
0
  6
CONTINUOUS
 62
     3
 10
134.475
 20
218.505
 11
134.700641237
 21
218.505
  0
LINE
  8
0
  6
CONTINUOUS
 62
     3
 10
137.475
 20
219.505
 11
137.475
 21
219.28
  0
LINE
  8
0
  6
CONTINUOUS
 62
     3
 10
134.675
 20
218.005
 11
129.3
 21
218.005
  0
LINE
  8
0
  6
CONTINUOUS
 62
     3
 10
141.8
 20
218.005
 11
140.675
 21
218.005
  0
LINE
  8
0
  6
CONTINUOUS
 62
     3
 10
131.175
 20
168.53
 11
131.175
 21
213.78
  0
LINE
  8
0
  6
CONTINUOUS
 62
     4
 10
164.375
 20
96.28
 11
157.475
 21
96.28
  0
LINE
  8
0
  6
CONTINUOUS
 62
     4
 10
158.225
 20
96.28
 11
157.772066671
 21
94.589629804
  0
LINE
  8
0
  6
CONTINUOUS
 62
     4
 10
158.225
 20
96.28
 11
158.677933329
 21
94.589629804
  0
LINE
  8
0
  6
CONTINUOUS
 62
     4
 10
158.225
 20
96.28
 11
158.225
 21
89.28
  0
LINE
  8
0
  6
CONTINUOUS
 62
     4
 10
158.225
 20
89.28
 11
158.677933329
 21
90.970370196
  0
LINE
  8
0
  6
CONTINUOUS
 62
     4
 10
158.225
 20
89.28
 11
157.772066671
 21
90.970370196
  0
LINE
  8
0
  6
CONTINUOUS
 62
     4
 10
164.625
 20
89.28
 11
157.475
 21
89.28
  0
TEXT
  8
0
  6
CONTINUOUS
 62
     4
 10
157.475
 20
91.88
 30
0.0
 40
2.2
  1
７
 50
90.0
 41
0.818181818
 51
0.0
  7
KANJI2
  0
LINE
  8
0
  6
CONTINUOUS
 62
     4
 10
213.375
 20
96.28
 11
223.175
 21
96.28
  0
LINE
  8
0
  6
CONTINUOUS
 62
     4
 10
222.425
 20
96.28
 11
222.877933329
 21
97.970370196
  0
LINE
  8
0
  6
CONTINUOUS
 62
     4
 10
222.425
 20
96.28
 11
221.972066671
 21
97.970370196
  0
LINE
  8
0
  6
CONTINUOUS
 62
     4
 10
222.425
 20
96.28
 11
222.425
 21
235.78
  0
LINE
  8
0
  6
CONTINUOUS
 62
     4
 10
222.425
 20
235.78
 11
221.972066671
 21
234.089629804
  0
LINE
  8
0
  6
CONTINUOUS
 62
     4
 10
222.425
 20
235.78
 11
222.877933329
 21
234.089629804
  0
LINE
  8
0
  6
CONTINUOUS
 62
     4
 10
204.575
 20
235.78
 11
223.175
 21
235.78
  0
TEXT
  8
0
  6
CONTINUOUS
 62
     4
 10
221.675
 20
161.53
 30
0.0
 40
2.2
  1
１４０．５
 50
90.0
 41
0.818181818
 51
0.0
  7
KANJI2
  0
LINE
  8
0
  6
CONTINUOUS
 62
     3
 10
172.875
 20
217.28
 11
169.875
 21
217.28
  0
LINE
  8
0
  6
CONTINUOUS
 62
     3
 10
169.875
 20
218.28
 11
169.875
 21
217.28
  0
ARC
  8
0
  6
CONTINUOUS
 62
     3
 10
170.875
 20
218.28
 40
1.0
 50
90.0
 51
180.0
  0
LINE
  8
0
  6
CONTINUOUS
 62
     3
 10
174.875
 20
219.28
 11
170.875
 21
219.28
  0
ARC
  8
0
  6
CONTINUOUS
 62
     3
 10
174.875
 20
218.28
 40
1.0
 50
0.0
 51
90.0
  0
LINE
  8
0
  6
CONTINUOUS
 62
     3
 10
172.875
 20
217.28
 11
175.875
 21
217.28
  0
LINE
  8
0
  6
CONTINUOUS
 62
     3
 10
175.875
 20
218.28
 11
175.875
 21
217.28
  0
LINE
  8
0
  6
CONTINUOUS
 62
     3
 10
182.955
 20
218.28
 11
175.875
 21
218.28
  0
LINE
  8
0
  6
CONTINUOUS
 62
     3
 10
171.175
 20
219.28
 11
171.175
 21
219.535
  0
LINE
  8
0
  6
CONTINUOUS
 62
     3
 10
204.875
 20
217.28
 11
207.875
 21
217.28
  0
LINE
  8
0
  6
CONTINUOUS
 62
     3
 10
207.875
 20
218.28
 11
207.875
 21
217.28
  0
ARC
  8
0
  6
CONTINUOUS
 62
     3
 10
206.875
 20
218.28
 40
1.0
 50
0.0
 51
90.0
  0
LINE
  8
0
  6
CONTINUOUS
 62
     3
 10
202.875
 20
219.28
 11
206.875
 21
219.28
  0
ARC
  8
0
  6
CONTINUOUS
 62
     3
 10
202.875
 20
218.28
 40
1.0
 50
90.0
 51
180.0
  0
LINE
  8
0
  6
CONTINUOUS
 62
     3
 10
204.875
 20
217.28
 11
201.875
 21
217.28
  0
LINE
  8
0
  6
CONTINUOUS
 62
     3
 10
201.875
 20
218.28
 11
201.875
 21
217.28
  0
LINE
  8
0
  6
CONTINUOUS
 62
     3
 10
206.575
 20
219.28
 11
206.575
 21
219.535
  0
LINE
  8
0
  6
CONTINUOUS
 62
     3
 10
182.375
 20
216.405
 11
183.375
 21
216.405
  0
LINE
  8
0
  6
CONTINUOUS
 62
     3
 10
182.375
 20
217.28
 11
182.375
 21
215.28
  0
LINE
  8
0
  6
CONTINUOUS
 62
     3
 10
194.375
 20
216.28
 11
194.375
 21
215.28
  0
LINE
  8
0
  6
CONTINUOUS
 62
     3
 10
194.375
 20
217.28
 11
194.795
 21
217.28
  0
LINE
  8
0
  6
CONTINUOUS
 62
     3
 10
195.375
 20
216.405
 11
194.375
 21
216.405
  0
LINE
  8
0
  6
CONTINUOUS
 62
     3
 10
195.375
 20
217.28
 11
195.375
 21
215.28
  0
LINE
  8
0
  6
CONTINUOUS
 62
     3
 10
201.875
 20
218.28
 11
195.075
 21
218.28
  0
LINE
  8
0
  6
CONTINUOUS
 62
     3
 10
206.575
 20
219.28
 11
206.575
 21
222.28
  0
LINE
  8
0
  6
CONTINUOUS
 62
     4
 10
166.375
 20
76.7
 11
168.065370196
 21
76.247066671
  0
LINE
  8
0
  6
CONTINUOUS
 62
     4
 10
166.375
 20
76.7
 11
168.065370196
 21
77.152933329
  0
LINE
  8
0
  6
CONTINUOUS
 62
     4
 10
166.375
 20
76.7
 11
211.375
 21
76.7
  0
LINE
  8
0
  6
CONTINUOUS
 62
     4
 10
211.375
 20
76.7
 11
209.684629804
 21
77.152933329
  0
LINE
  8
0
  6
CONTINUOUS
 62
     4
 10
211.375
 20
76.7
 11
209.684629804
 21
76.247066671
  0
TEXT
  8
0
  6
CONTINUOUS
 62
     4
 10
187.075
 20
77.45
 30
0.0
 40
2.2
  1
４５
 50
0.0
 41
0.818181818
 51
0.0
  7
KANJI2
  0
LINE
  8
2
  6
CONTINUOUS
 62
     3
 10
200.9115
 20
16.6813
 11
177.5115
 21
16.6813
  0
LINE
  8
2
  6
CONTINUOUS
 62
     3
 10
177.5115
 20
16.6813
 11
177.5115
 21
28.3813
  0
LINE
  8
2
  6
CONTINUOUS
 62
     3
 10
177.5115
 20
46.3213
 11
200.9115
 21
46.3213
  0
LINE
  8
2
  6
CONTINUOUS
 62
     3
 10
200.9115
 20
46.3213
 11
200.9115
 21
34.6213
  0
LINE
  8
2
  6
CONTINUOUS
 62
     3
 10
208.7115
 20
46.3213
 11
232.1115
 21
46.3213
  0
LINE
  8
2
  6
CONTINUOUS
 62
     3
 10
208.7115
 20
34.6213
 11
208.7115
 21
46.3213
  0
LINE
  8
2
  6
CONTINUOUS
 62
     3
 10
177.5115
 20
34.6213
 11
177.5115
 21
46.3213
  0
LINE
  8
2
  6
CONTINUOUS
 62
     3
 10
200.9115
 20
34.6213
 11
177.5115
 21
34.6213
  0
LINE
  8
2
  6
CONTINUOUS
 62
     3
 10
200.9115
 20
28.3813
 11
200.9115
 21
16.6813
  0
LINE
  8
2
  6
CONTINUOUS
 62
     3
 10
177.5115
 20
28.3813
 11
200.9115
 21
28.3813
  0
LINE
  8
2
  6
CONTINUOUS
 62
     3
 10
208.7115
 20
28.3813
 11
232.1115
 21
28.3813
  0
LINE
  8
2
  6
CONTINUOUS
 62
     3
 10
208.7115
 20
16.6813
 11
208.7115
 21
28.3813
  0
LINE
  8
2
  6
CONTINUOUS
 62
     3
 10
232.1115
 20
28.3813
 11
232.1115
 21
16.6813
  0
LINE
  8
2
  6
CONTINUOUS
 62
     3
 10
232.1115
 20
16.6813
 11
208.7115
 21
16.6813
  0
LINE
  8
2
  6
CONTINUOUS
 62
     3
 10
232.1115
 20
46.3213
 11
232.1115
 21
34.6213
  0
LINE
  8
2
  6
CONTINUOUS
 62
     3
 10
232.1115
 20
34.6213
 11
208.7115
 21
34.6213
  0
TEXT
  8
0
  6
CONTINUOUS
 62
     3
 10
193.8525
 20
49.8645
 30
0.10374
 40
3.12
  1
ＰＡＮＥＬ　ＣＵＴ
 50
0.0
 41
0.75
 51
0.0
  7
KANJI3
  0
LINE
  8
2
  6
CONTINUOUS
 62
     4
 10
176.7315
 20
34.6213
 11
170.4915
 21
34.6213
  0
LINE
  8
2
  6
CONTINUOUS
 62
     4
 10
172.0515
 20
34.6213
 11
172.45525771
 21
36.128144289
  0
LINE
  8
2
  6
CONTINUOUS
 62
     4
 10
172.0515
 20
34.6213
 11
171.64774229
 21
36.128144289
  0
LINE
  8
2
  6
CONTINUOUS
 62
     4
 10
172.0515
 20
46.3213
 11
172.0515
 21
34.6213
  0
TEXT
  8
2
  6
CONTINUOUS
 62
     4
 10
170.7255
 20
37.0783
 30
0.078
 40
1.794
  1
４５
 50
90.0
 41
0.739130435
 51
0.0
  7
KANJI4
  0
TEXT
  8
2
  6
CONTINUOUS
 62
     4
 10
171.7317
 20
40.0384
 30
0.0702
 40
1.6146
  1
－０
 50
90.0
 41
0.739130435
 51
0.0
  7
KANJI5
  0
TEXT
  8
2
  6
CONTINUOUS
 62
     4
 10
169.8909
 20
40.0384
 30
0.0702
 40
1.6146
  1
＋０．６
 50
90.0
 41
0.739130435
 51
0.0
  7
KANJI5
  0
LINE
  8
2
  6
CONTINUOUS
 62
     4
 10
176.7315
 20
46.3213
 11
170.4915
 21
46.3213
  0
LINE
  8
2
  6
CONTINUOUS
 62
     4
 10
172.0515
 20
46.3213
 11
171.64774229
 21
44.814455711
  0
LINE
  8
2
  6
CONTINUOUS
 62
     4
 10
172.0515
 20
46.3213
 11
172.45525771
 21
44.814455711
  0
LINE
  8
2
  6
CONTINUOUS
 62
     4
 10
173.7675
 20
40.4713
 11
186.4659
 21
40.4713
  0
LINE
  8
2
  6
CONTINUOUS
 62
     4
 10
189.2115
 20
41.9377
 11
189.2115
 21
38.4277
  0
LINE
  8
2
  6
CONTINUOUS
 62
     4
 10
187.6359
 20
40.4713
 11
191.1459
 21
40.4713
  0
LINE
  8
2
  6
CONTINUOUS
 62
     4
 10
192.3159
 20
40.4713
 11
217.6659
 21
40.4713
  0
LINE
  8
2
  6
CONTINUOUS
 62
     4
 10
189.2115
 20
37.2577
 11
189.2115
 21
26.3377
  0
TEXT
  8
2
  6
CONTINUOUS
 62
     4
 10
185.8965
 20
31.3453
 30
0.078
 40
1.794
  1
９２
 50
0.0
 41
0.739130435
 51
0.0
  7
KANJI4
  0
TEXT
  8
2
  6
CONTINUOUS
 62
     4
 10
190.2606
 20
30.7291
 30
0.0702
 40
1.6146
  1
－０
 50
0.0
 41
0.739130435
 51
0.0
  7
KANJI5
  0
TEXT
  8
2
  6
CONTINUOUS
 62
     4
 10
190.2606
 20
32.5699
 30
0.0
 40
1.6146
  1
＋０．８
 50
0.0
 41
0.739130435
 51
0.0
  7
KANJI6
  0
LINE
  8
2
  6
CONTINUOUS
 62
     4
 10
177.5115
 20
30.3313
 11
179.018344289
 21
29.92754229
  0
LINE
  8
2
  6
CONTINUOUS
 62
     4
 10
177.5115
 20
30.3313
 11
200.9115
 21
30.3313
  0
LINE
  8
2
  6
CONTINUOUS
 62
     4
 10
177.5115
 20
30.3313
 11
179.018344289
 21
30.73505771
  0
LINE
  8
2
  6
CONTINUOUS
 62
     4
 10
177.5115
 20
33.8413
 11
177.5115
 21
29.5513
  0
LINE
  8
2
  6
CONTINUOUS
 62
     4
 10
200.9115
 20
30.3313
 11
199.404655711
 21
30.73505771
  0
LINE
  8
2
  6
CONTINUOUS
 62
     4
 10
200.9115
 20
30.3313
 11
199.404655711
 21
29.92754229
  0
LINE
  8
2
  6
CONTINUOUS
 62
     4
 10
200.9115
 20
33.8413
 11
200.9115
 21
29.5513
  0
LINE
  8
2
  6
CONTINUOUS
 62
     4
 10
192.7059
 20
22.5313
 11
215.3805
 21
22.5313
  0
LINE
  8
2
  6
CONTINUOUS
 62
     4
 10
187.2459
 20
22.5313
 11
191.5359
 21
22.5313
  0
LINE
  8
2
  6
CONTINUOUS
 62
     4
 10
189.2115
 20
25.1677
 11
189.2115
 21
20.4877
  0
LINE
  8
2
  6
CONTINUOUS
 62
     4
 10
173.6739
 20
22.5313
 11
186.0759
 21
22.5313
  0
LINE
  8
2
  6
CONTINUOUS
 62
     4
 10
189.2115
 20
19.3177
 11
189.2115
 21
6.4633
  0
TEXT
  8
2
  6
CONTINUOUS
 62
     4
 10
199.9365
 20
8.6473
 30
0.078
 40
1.794
  1
ＭＩＮ．１２０
 50
0.0
 41
0.739130435
 51
0.0
  7
KANJI4
  0
LINE
  8
2
  6
CONTINUOUS
 62
     4
 10
189.2115
 20
8.0233
 11
190.718344289
 21
7.61954229
  0
LINE
  8
2
  6
CONTINUOUS
 62
     4
 10
189.2115
 20
8.0233
 11
190.718344289
 21
8.42705771
  0
LINE
  8
2
  6
CONTINUOUS
 62
     4
 10
220.4115
 20
8.0233
 11
218.904655711
 21
7.61954229
  0
LINE
  8
2
  6
CONTINUOUS
 62
     4
 10
220.4115
 20
8.0233
 11
218.904655711
 21
8.42705771
  0
LINE
  8
2
  6
CONTINUOUS
 62
     4
 10
220.4115
 20
19.7077
 11
220.4115
 21
6.4633
  0
LINE
  8
2
  6
CONTINUOUS
 62
     4
 10
220.4115
 20
8.0233
 11
189.2115
 21
8.0233
  0
LINE
  8
2
  6
CONTINUOUS
 62
     4
 10
216.9405
 20
22.5313
 11
224.7405
 21
22.5313
  0
LINE
  8
2
  6
CONTINUOUS
 62
     4
 10
220.4115
 20
24.3877
 11
220.4115
 21
20.8777
  0
LINE
  8
2
  6
CONTINUOUS
 62
     4
 10
220.4115
 20
37.8037
 11
220.4115
 21
25.5577
  0
LINE
  8
2
  6
CONTINUOUS
 62
     4
 10
220.4115
 20
43.2637
 11
220.4115
 21
38.8957
  0
LINE
  8
2
  6
CONTINUOUS
 62
     4
 10
218.8359
 20
40.4713
 11
223.1259
 21
40.4713
  0
LINE
  8
0
  6
CONTINUOUS
 62
     4
 10
223.6259
 20
40.4713
 11
243.7615
 21
40.4713
  0
LINE
  8
0
  6
CONTINUOUS
 62
     4
 10
243.0115
 20
40.4713
 11
242.558566671
 21
38.780929804
  0
LINE
  8
0
  6
CONTINUOUS
 62
     4
 10
243.0115
 20
40.4713
 11
243.464433329
 21
38.780929804
  0
LINE
  8
0
  6
CONTINUOUS
 62
     4
 10
243.0115
 20
40.4713
 11
243.0115
 21
22.5313
  0
LINE
  8
0
  6
CONTINUOUS
 62
     4
 10
243.0115
 20
22.5313
 11
243.464433329
 21
24.221670196
  0
LINE
  8
0
  6
CONTINUOUS
 62
     4
 10
243.0115
 20
22.5313
 11
242.558566671
 21
24.221670196
  0
LINE
  8
0
  6
CONTINUOUS
 62
     4
 10
225.2405
 20
22.5313
 11
243.7615
 21
22.5313
  0
TEXT
  8
0
  6
CONTINUOUS
 62
     4
 10
241.8615
 20
25.8513
 30
0.0
 40
2.2
  1
ＭＩＮ．７０
 50
90.0
 41
0.818181818
 51
0.0
  7
KANJI2
  0
CIRCLE
  8
0
  6
CONTINUOUS
 62
     3
 10
178.174975
 20
134.73
 40
3.2
  0
CIRCLE
  8
0
  6
CONTINUOUS
 62
     3
 10
178.174975
 20
134.73
 40
3.0
  0
LINE
  8
0
  6
CONTINUOUS
 62
     3
 10
177.674975
 20
136.73
 11
177.674975
 21
135.23
  0
LINE
  8
0
  6
CONTINUOUS
 62
     3
 10
177.674975
 20
135.23
 11
176.174975
 21
135.23
  0
LINE
  8
0
  6
CONTINUOUS
 62
     3
 10
176.174975
 20
135.23
 11
176.174975
 21
134.23
  0
LINE
  8
0
  6
CONTINUOUS
 62
     3
 10
176.174975
 20
134.23
 11
177.674975
 21
134.23
  0
LINE
  8
0
  6
CONTINUOUS
 62
     3
 10
177.674975
 20
134.23
 11
177.674975
 21
132.73
  0
LINE
  8
0
  6
CONTINUOUS
 62
     3
 10
177.674975
 20
132.73
 11
178.674975
 21
132.73
  0
LINE
  8
0
  6
CONTINUOUS
 62
     3
 10
178.674975
 20
132.73
 11
178.674975
 21
134.23
  0
LINE
  8
0
  6
CONTINUOUS
 62
     3
 10
178.674975
 20
134.23
 11
180.174975
 21
134.23
  0
LINE
  8
0
  6
CONTINUOUS
 62
     3
 10
180.174975
 20
134.23
 11
180.174975
 21
135.23
  0
LINE
  8
0
  6
CONTINUOUS
 62
     3
 10
180.174975
 20
135.23
 11
178.674975
 21
135.23
  0
LINE
  8
0
  6
CONTINUOUS
 62
     3
 10
178.674975
 20
135.23
 11
178.674975
 21
136.73
  0
LINE
  8
0
  6
CONTINUOUS
 62
     3
 10
178.674975
 20
136.73
 11
177.674975
 21
136.73
  0
ARC
  8
0
  6
CONTINUOUS
 62
     3
 10
178.174975
 20
134.73
 40
6.0
 50
29.925956334
 51
330.074043666
  0
POINT
  8
0
  6
CONTINUOUS
 62
     3
 10
142.675
 20
14.08
  0
LINE
  8
0
  6
CONTINUOUS
 62
     3
 10
142.675
 20
14.08
 11
142.675
 21
60.08
  0
POINT
  8
0
  6
CONTINUOUS
 62
     3
 10
142.675
 20
60.08
  0
LINE
  8
0
  6
CONTINUOUS
 62
     3
 10
122.175
 20
60.08
 11
116.175
 21
60.08
  0
LINE
  8
0
  6
CONTINUOUS
 62
     3
 10
142.675
 20
60.08
 11
124.425
 21
60.08
  0
ARC
  8
0
  6
CONTINUOUS
 62
     3
 10
143.175
 20
13.58
 40
0.5
 50
270.0
 51
0.0
  0
LINE
  8
0
  6
CONTINUOUS
 62
     3
 10
143.675
 20
60.58
 11
143.675
 21
13.58
  0
LINE
  8
0
  6
CONTINUOUS
 62
     3
 10
123.175
 20
61.08
 11
143.175
 21
61.08
  0
ARC
  8
0
  6
CONTINUOUS
 62
     3
 10
143.175
 20
60.58
 40
0.5
 50
0.0
 51
90.0
  0
LINE
  8
0
  6
CONTINUOUS
 62
     3
 10
95.675
 20
61.08
 11
48.175
 21
61.08
  0
ARC
  8
0
  6
CONTINUOUS
 62
     3
 10
48.175
 20
60.58
 40
0.5
 50
90.0
 51
180.000000001
  0
LINE
  8
0
  6
CONTINUOUS
 62
     3
 10
47.675
 20
60.58
 11
47.675
 21
13.58
  0
ARC
  8
0
  6
CONTINUOUS
 62
     3
 10
48.175
 20
13.58
 40
0.5
 50
180.000000001
 51
270.0
  0
LINE
  8
0
  6
CONTINUOUS
 62
     3
 10
124.675
 20
60.08
 11
48.675
 21
60.08
  0
LINE
  8
0
  6
CONTINUOUS
 62
     3
 10
95.675
 20
61.08
 11
123.425
 21
61.08
  0
TEXT
  8
0
  6
CONTINUOUS
 62
     4
 10
32.16
 20
35.2
 30
0.0
 40
2.0
  1
４８
 50
90.0
 41
0.9
 51
0.0
  7
KANJI0
  0
LINE
  8
0
  6
CONTINUOUS
 62
     4
 10
33.16
 20
61.0
 11
33.16
 21
13.0
  0
LINE
  8
0
  6
CONTINUOUS
 62
     4
 10
47.46
 20
61.0
 11
32.16
 21
61.0
  0
LINE
  8
0
  6
CONTINUOUS
 62
     4
 10
33.16
 20
61.0
 11
32.64236191
 21
59.068148347
  0
LINE
  8
0
  6
CONTINUOUS
 62
     4
 10
33.16
 20
61.0
 11
33.67763809
 21
59.068148347
  0
LINE
  8
0
  6
CONTINUOUS
 62
     4
 10
47.66
 20
13.0
 11
32.16
 21
13.0
  0
LINE
  8
0
  6
CONTINUOUS
 62
     4
 10
33.16
 20
13.0
 11
33.67763809
 21
14.931851653
  0
LINE
  8
0
  6
CONTINUOUS
 62
     4
 10
33.16
 20
13.0
 11
32.64236191
 21
14.931851653
  0
POINT
  8
0
  6
CONTINUOUS
 62
     3
 10
92.53036077
 20
38.83
  0
LINE
  8
0
  6
CONTINUOUS
 62
     3
 10
91.817633497
 20
33.93
 11
92.50126986
 21
38.63
  0
LINE
  8
0
  6
CONTINUOUS
 62
     3
 10
91.842178951
 20
33.88
 11
92.642178951
 21
32.68
  0
LINE
  8
0
  6
CONTINUOUS
 62
     3
 10
92.342178951
 20
32.38
 11
92.492178951
 21
32.5
  0
LINE
  8
0
  6
CONTINUOUS
 62
     3
 10
92.642178951
 20
32.62
 11
92.842178951
 21
32.78
  0
LINE
  8
0
  6
CONTINUOUS
 62
     3
 10
92.342178951
 20
32.38
 11
85.342178951
 21
32.38
  0
LINE
  8
0
  6
CONTINUOUS
 62
     3
 10
93.592178951
 20
39.23
 11
93.792178951
 21
39.13
  0
LINE
  8
0
  6
CONTINUOUS
 62
     3
 10
93.642178951
 20
39.53
 11
93.942178951
 21
39.73
  0
LINE
  8
0
  6
CONTINUOUS
 62
     3
 10
86.192178951
 20
39.48
 11
85.942178951
 21
39.73
  0
LINE
  8
0
  6
CONTINUOUS
 62
     3
 10
87.142178951
 20
39.93
 11
86.192178951
 21
39.542962963
  0
LINE
  8
0
  6
CONTINUOUS
 62
     3
 10
92.292178951
 20
39.88
 11
93.242178951
 21
39.38
  0
LINE
  8
0
  6
CONTINUOUS
 62
     3
 10
93.242178951
 20
39.38
 11
92.042178951
 21
38.73
  0
LINE
  8
0
  6
CONTINUOUS
 62
     3
 10
87.642178951
 20
39.93
 11
86.442178951
 21
39.33
  0
LINE
  8
0
  6
CONTINUOUS
 62
     3
 10
87.242178951
 20
38.78
 11
86.492178951
 21
39.23
  0
LINE
  8
0
  6
CONTINUOUS
 62
     3
 10
93.816724406
 20
39.08
 11
92.907633497
 21
32.83
  0
LINE
  8
0
  6
CONTINUOUS
 62
     3
 10
93.642178951
 20
39.461818182
 11
92.692178951
 21
39.98
  0
LINE
  8
0
  6
CONTINUOUS
 62
     3
 10
92.492178951
 20
38.68
 11
93.592178951
 21
39.252
  0
LINE
  8
0
  6
CONTINUOUS
 62
     3
 10
91.642178951
 20
33.63
 11
86.692178951
 21
33.63
  0
LINE
  8
0
  6
CONTINUOUS
 62
     3
 10
91.642178951
 20
33.68
 11
92.442178951
 21
32.43
  0
LINE
  8
0
  6
CONTINUOUS
 62
     3
 10
86.692178951
 20
33.63
 11
85.342178951
 21
32.43
  0
POINT
  8
0
  6
CONTINUOUS
 62
     3
 10
85.342178951
 20
32.38
  0
LINE
  8
0
  6
CONTINUOUS
 62
     3
 10
87.292178951
 20
38.73
 11
92.042178951
 21
38.73
  0
LINE
  8
0
  6
CONTINUOUS
 62
     3
 10
92.242178951
 20
39.98
 11
87.692178951
 21
39.98
  0
LINE
  8
0
  6
CONTINUOUS
 62
     3
 10
88.142178951
 20
45.13
 11
87.292178951
 21
46.13
  0
LINE
  8
0
  6
CONTINUOUS
 62
     3
 10
87.892178951
 20
45.08
 11
87.092178951
 21
45.98
  0
LINE
  8
0
  6
CONTINUOUS
 62
     3
 10
93.192178951
 20
45.18
 11
94.392178951
 21
46.18
  0
LINE
  8
0
  6
CONTINUOUS
 62
     3
 10
94.542178951
 20
45.98
 11
93.392178951
 21
44.98
  0
LINE
  8
0
  6
CONTINUOUS
 62
     3
 10
94.754906224
 20
45.78
 11
93.903997133
 21
39.68
  0
LINE
  8
0
  6
CONTINUOUS
 62
     3
 10
94.66036077
 20
45.93
 11
94.742178951
 21
45.83
  0
LINE
  8
0
  6
CONTINUOUS
 62
     3
 10
94.292178951
 20
46.38
 11
94.496724406
 21
46.13
  0
LINE
  8
0
  6
CONTINUOUS
 62
     3
 10
92.683088042
 20
39.88
 11
93.388542588
 21
44.98
  0
LINE
  8
0
  6
CONTINUOUS
 62
     3
 10
87.91036077
 20
45.13
 11
87.175815315
 21
39.83
  0
LINE
  8
0
  6
CONTINUOUS
 62
     3
 10
93.142178951
 20
45.13
 11
88.042178951
 21
45.13
  0
LINE
  8
0
  6
CONTINUOUS
 62
     3
 10
85.927893237
 20
39.73
 11
86.77075038
 21
45.88
  0
LINE
  8
0
  6
CONTINUOUS
 62
     3
 10
87.392178951
 20
46.38
 11
94.342178951
 21
46.38
  0
LINE
  8
0
  6
CONTINUOUS
 62
     3
 10
87.392178951
 20
46.33
 11
87.342178951
 21
46.295384615
  0
LINE
  8
0
  6
CONTINUOUS
 62
     3
 10
87.042178951
 20
46.087692308
 11
86.742178951
 21
45.88
  0
LINE
  8
0
  6
CONTINUOUS
 62
     3
 10
87.292178951
 20
46.13
 11
87.242178951
 21
46.18
  0
LINE
  8
0
  6
CONTINUOUS
 62
     3
 10
87.242178951
 20
46.18
 11
87.342178951
 21
46.28
  0
LINE
  8
0
  6
CONTINUOUS
 62
     3
 10
87.092178951
 20
45.98
 11
87.042178951
 21
46.08
  0
POINT
  8
0
  6
CONTINUOUS
 62
     3
 10
80.03036077
 20
38.83
  0
LINE
  8
0
  6
CONTINUOUS
 62
     3
 10
79.317633497
 20
33.93
 11
80.00126986
 21
38.63
  0
LINE
  8
0
  6
CONTINUOUS
 62
     3
 10
79.342178951
 20
33.88
 11
80.142178951
 21
32.68
  0
LINE
  8
0
  6
CONTINUOUS
 62
     3
 10
79.842178951
 20
32.38
 11
79.992178951
 21
32.5
  0
LINE
  8
0
  6
CONTINUOUS
 62
     3
 10
80.142178951
 20
32.62
 11
80.342178951
 21
32.78
  0
LINE
  8
0
  6
CONTINUOUS
 62
     3
 10
81.092178951
 20
39.23
 11
81.292178951
 21
39.13
  0
LINE
  8
0
  6
CONTINUOUS
 62
     3
 10
81.142178951
 20
39.53
 11
81.442178951
 21
39.73
  0
LINE
  8
0
  6
CONTINUOUS
 62
     3
 10
73.692178951
 20
39.48
 11
73.442178951
 21
39.73
  0
LINE
  8
0
  6
CONTINUOUS
 62
     3
 10
74.642178951
 20
39.93
 11
73.692178951
 21
39.542962963
  0
LINE
  8
0
  6
CONTINUOUS
 62
     3
 10
79.792178951
 20
39.88
 11
80.742178951
 21
39.38
  0
LINE
  8
0
  6
CONTINUOUS
 62
     3
 10
80.742178951
 20
39.38
 11
79.542178951
 21
38.73
  0
LINE
  8
0
  6
CONTINUOUS
 62
     3
 10
75.142178951
 20
39.93
 11
73.942178951
 21
39.33
  0
LINE
  8
0
  6
CONTINUOUS
 62
     3
 10
74.742178951
 20
38.78
 11
73.992178951
 21
39.23
  0
LINE
  8
0
  6
CONTINUOUS
 62
     3
 10
81.316724406
 20
39.08
 11
80.407633497
 21
32.83
  0
LINE
  8
0
  6
CONTINUOUS
 62
     3
 10
81.142178951
 20
39.461818182
 11
80.192178951
 21
39.98
  0
LINE
  8
0
  6
CONTINUOUS
 62
     3
 10
79.992178951
 20
38.68
 11
81.092178951
 21
39.252
  0
LINE
  8
0
  6
CONTINUOUS
 62
     3
 10
79.142178951
 20
33.63
 11
74.192178951
 21
33.63
  0
LINE
  8
0
  6
CONTINUOUS
 62
     3
 10
79.142178951
 20
33.68
 11
79.942178951
 21
32.43
  0
LINE
  8
0
  6
CONTINUOUS
 62
     3
 10
74.792178951
 20
38.73
 11
79.542178951
 21
38.73
  0
LINE
  8
0
  6
CONTINUOUS
 62
     3
 10
79.742178951
 20
39.98
 11
75.192178951
 21
39.98
  0
LINE
  8
0
  6
CONTINUOUS
 62
     3
 10
80.692178951
 20
45.18
 11
81.892178951
 21
46.18
  0
LINE
  8
0
  6
CONTINUOUS
 62
     3
 10
82.042178951
 20
45.98
 11
80.892178951
 21
44.98
  0
LINE
  8
0
  6
CONTINUOUS
 62
     3
 10
82.254906224
 20
45.78
 11
81.403997133
 21
39.68
  0
LINE
  8
0
  6
CONTINUOUS
 62
     3
 10
82.16036077
 20
45.93
 11
82.242178951
 21
45.83
  0
LINE
  8
0
  6
CONTINUOUS
 62
     3
 10
81.792178951
 20
46.38
 11
81.996724406
 21
46.13
  0
LINE
  8
0
  6
CONTINUOUS
 62
     3
 10
80.183088042
 20
39.88
 11
80.888542588
 21
44.98
  0
LINE
  8
0
  6
CONTINUOUS
 62
     3
 10
73.427893237
 20
39.73
 11
74.27075038
 21
45.88
  0
LINE
  8
0
  6
CONTINUOUS
 62
     3
 10
80.642178951
 20
45.13
 11
75.592178951
 21
45.13
  0
LINE
  8
0
  6
CONTINUOUS
 62
     3
 10
75.592178951
 20
45.13
 11
74.592178951
 21
46.13
  0
LINE
  8
0
  6
CONTINUOUS
 62
     3
 10
75.342178951
 20
44.88
 11
74.342178951
 21
45.88
  0
LINE
  8
0
  6
CONTINUOUS
 62
     3
 10
75.375712399
 20
44.88
 11
74.675815315
 21
39.83
  0
LINE
  8
0
  6
CONTINUOUS
 62
     3
 10
74.842178951
 20
46.38
 11
81.842178951
 21
46.38
  0
LINE
  8
0
  6
CONTINUOUS
 62
     3
 10
74.592178951
 20
46.13
 11
74.842178951
 21
46.38
  0
LINE
  8
0
  6
CONTINUOUS
 62
     3
 10
74.217178951
 20
45.755
 11
74.342178951
 21
45.88
  0
LINE
  8
0
  6
CONTINUOUS
 62
     3
 10
79.842178951
 20
32.38
 11
72.842178951
 21
32.38
  0
LINE
  8
0
  6
CONTINUOUS
 62
     3
 10
74.192178951
 20
33.63
 11
72.842178951
 21
32.43
  0
POINT
  8
0
  6
CONTINUOUS
 62
     3
 10
117.53036077
 20
38.83
  0
LINE
  8
0
  6
CONTINUOUS
 62
     3
 10
116.817633497
 20
33.93
 11
117.50126986
 21
38.63
  0
LINE
  8
0
  6
CONTINUOUS
 62
     3
 10
116.842178951
 20
33.88
 11
117.642178951
 21
32.68
  0
LINE
  8
0
  6
CONTINUOUS
 62
     3
 10
117.342178951
 20
32.38
 11
117.492178951
 21
32.5
  0
LINE
  8
0
  6
CONTINUOUS
 62
     3
 10
117.642178951
 20
32.62
 11
117.842178951
 21
32.78
  0
LINE
  8
0
  6
CONTINUOUS
 62
     3
 10
117.342178951
 20
32.38
 11
110.342178951
 21
32.38
  0
LINE
  8
0
  6
CONTINUOUS
 62
     3
 10
118.592178951
 20
39.23
 11
118.792178951
 21
39.13
  0
LINE
  8
0
  6
CONTINUOUS
 62
     3
 10
118.642178951
 20
39.53
 11
118.942178951
 21
39.73
  0
LINE
  8
0
  6
CONTINUOUS
 62
     3
 10
111.192178951
 20
39.48
 11
110.942178951
 21
39.73
  0
LINE
  8
0
  6
CONTINUOUS
 62
     3
 10
112.142178951
 20
39.93
 11
111.192178951
 21
39.542962963
  0
LINE
  8
0
  6
CONTINUOUS
 62
     3
 10
117.292178951
 20
39.88
 11
118.242178951
 21
39.38
  0
LINE
  8
0
  6
CONTINUOUS
 62
     3
 10
118.242178951
 20
39.38
 11
117.042178951
 21
38.73
  0
LINE
  8
0
  6
CONTINUOUS
 62
     3
 10
112.642178951
 20
39.93
 11
111.442178951
 21
39.33
  0
LINE
  8
0
  6
CONTINUOUS
 62
     3
 10
112.242178951
 20
38.78
 11
111.492178951
 21
39.23
  0
LINE
  8
0
  6
CONTINUOUS
 62
     3
 10
118.816724406
 20
39.08
 11
117.907633497
 21
32.83
  0
LINE
  8
0
  6
CONTINUOUS
 62
     3
 10
118.642178951
 20
39.461818182
 11
117.692178951
 21
39.98
  0
LINE
  8
0
  6
CONTINUOUS
 62
     3
 10
117.492178951
 20
38.68
 11
118.592178951
 21
39.252
  0
LINE
  8
0
  6
CONTINUOUS
 62
     3
 10
116.642178951
 20
33.63
 11
111.692178951
 21
33.63
  0
LINE
  8
0
  6
CONTINUOUS
 62
     3
 10
116.642178951
 20
33.68
 11
117.442178951
 21
32.43
  0
LINE
  8
0
  6
CONTINUOUS
 62
     3
 10
111.692178951
 20
33.63
 11
110.342178951
 21
32.43
  0
POINT
  8
0
  6
CONTINUOUS
 62
     3
 10
110.342178951
 20
32.38
  0
LINE
  8
0
  6
CONTINUOUS
 62
     3
 10
112.292178951
 20
38.73
 11
117.042178951
 21
38.73
  0
LINE
  8
0
  6
CONTINUOUS
 62
     3
 10
117.242178951
 20
39.98
 11
112.692178951
 21
39.98
  0
POINT
  8
0
  6
CONTINUOUS
 62
     3
 10
105.03036077
 20
38.83
  0
LINE
  8
0
  6
CONTINUOUS
 62
     3
 10
104.317633497
 20
33.93
 11
105.00126986
 21
38.63
  0
LINE
  8
0
  6
CONTINUOUS
 62
     3
 10
104.342178951
 20
33.88
 11
105.142178951
 21
32.68
  0
LINE
  8
0
  6
CONTINUOUS
 62
     3
 10
104.842178951
 20
32.38
 11
104.992178951
 21
32.5
  0
LINE
  8
0
  6
CONTINUOUS
 62
     3
 10
105.142178951
 20
32.62
 11
105.342178951
 21
32.78
  0
LINE
  8
0
  6
CONTINUOUS
 62
     3
 10
104.842178951
 20
32.38
 11
97.842178951
 21
32.38
  0
LINE
  8
0
  6
CONTINUOUS
 62
     3
 10
106.092178951
 20
39.23
 11
106.292178951
 21
39.13
  0
LINE
  8
0
  6
CONTINUOUS
 62
     3
 10
106.142178951
 20
39.53
 11
106.442178951
 21
39.73
  0
LINE
  8
0
  6
CONTINUOUS
 62
     3
 10
98.692178951
 20
39.48
 11
98.442178951
 21
39.73
  0
LINE
  8
0
  6
CONTINUOUS
 62
     3
 10
99.642178951
 20
39.93
 11
98.692178951
 21
39.542962963
  0
LINE
  8
0
  6
CONTINUOUS
 62
     3
 10
104.792178951
 20
39.88
 11
105.742178951
 21
39.38
  0
LINE
  8
0
  6
CONTINUOUS
 62
     3
 10
105.742178951
 20
39.38
 11
104.542178951
 21
38.73
  0
LINE
  8
0
  6
CONTINUOUS
 62
     3
 10
100.142178951
 20
39.93
 11
98.942178951
 21
39.33
  0
LINE
  8
0
  6
CONTINUOUS
 62
     3
 10
99.742178951
 20
38.78
 11
98.992178951
 21
39.23
  0
LINE
  8
0
  6
CONTINUOUS
 62
     3
 10
106.316724406
 20
39.08
 11
105.407633497
 21
32.83
  0
LINE
  8
0
  6
CONTINUOUS
 62
     3
 10
106.142178951
 20
39.461818182
 11
105.192178951
 21
39.98
  0
LINE
  8
0
  6
CONTINUOUS
 62
     3
 10
104.992178951
 20
38.68
 11
106.092178951
 21
39.252
  0
LINE
  8
0
  6
CONTINUOUS
 62
     3
 10
104.142178951
 20
33.63
 11
99.192178951
 21
33.63
  0
LINE
  8
0
  6
CONTINUOUS
 62
     3
 10
104.142178951
 20
33.68
 11
104.942178951
 21
32.43
  0
LINE
  8
0
  6
CONTINUOUS
 62
     3
 10
99.192178951
 20
33.63
 11
97.842178951
 21
32.43
  0
POINT
  8
0
  6
CONTINUOUS
 62
     3
 10
97.842178951
 20
32.38
  0
LINE
  8
0
  6
CONTINUOUS
 62
     3
 10
99.792178951
 20
38.73
 11
104.542178951
 21
38.73
  0
LINE
  8
0
  6
CONTINUOUS
 62
     3
 10
104.742178951
 20
39.98
 11
100.192178951
 21
39.98
  0
LINE
  8
0
  6
CONTINUOUS
 62
     3
 10
113.142178951
 20
45.13
 11
112.292178951
 21
46.13
  0
LINE
  8
0
  6
CONTINUOUS
 62
     3
 10
112.892178951
 20
45.08
 11
112.092178951
 21
45.98
  0
LINE
  8
0
  6
CONTINUOUS
 62
     3
 10
118.192178951
 20
45.18
 11
119.392178951
 21
46.18
  0
LINE
  8
0
  6
CONTINUOUS
 62
     3
 10
119.542178951
 20
45.98
 11
118.392178951
 21
44.98
  0
LINE
  8
0
  6
CONTINUOUS
 62
     3
 10
119.754906224
 20
45.78
 11
118.903997133
 21
39.68
  0
LINE
  8
0
  6
CONTINUOUS
 62
     3
 10
119.66036077
 20
45.93
 11
119.742178951
 21
45.83
  0
LINE
  8
0
  6
CONTINUOUS
 62
     3
 10
119.292178951
 20
46.38
 11
119.496724406
 21
46.13
  0
LINE
  8
0
  6
CONTINUOUS
 62
     3
 10
117.683088042
 20
39.88
 11
118.388542588
 21
44.98
  0
LINE
  8
0
  6
CONTINUOUS
 62
     3
 10
112.91036077
 20
45.13
 11
112.175815315
 21
39.83
  0
LINE
  8
0
  6
CONTINUOUS
 62
     3
 10
118.142178951
 20
45.13
 11
113.042178951
 21
45.13
  0
LINE
  8
0
  6
CONTINUOUS
 62
     3
 10
110.927893237
 20
39.73
 11
111.77075038
 21
45.88
  0
LINE
  8
0
  6
CONTINUOUS
 62
     3
 10
112.392178951
 20
46.38
 11
119.342178951
 21
46.38
  0
LINE
  8
0
  6
CONTINUOUS
 62
     3
 10
112.392178951
 20
46.33
 11
112.342178951
 21
46.295384615
  0
LINE
  8
0
  6
CONTINUOUS
 62
     3
 10
112.042178951
 20
46.087692308
 11
111.742178951
 21
45.88
  0
LINE
  8
0
  6
CONTINUOUS
 62
     3
 10
112.292178951
 20
46.13
 11
112.242178951
 21
46.18
  0
LINE
  8
0
  6
CONTINUOUS
 62
     3
 10
112.242178951
 20
46.18
 11
112.342178951
 21
46.28
  0
LINE
  8
0
  6
CONTINUOUS
 62
     3
 10
112.092178951
 20
45.98
 11
112.042178951
 21
46.08
  0
LINE
  8
0
  6
CONTINUOUS
 62
     3
 10
100.642178951
 20
45.13
 11
99.792178951
 21
46.13
  0
LINE
  8
0
  6
CONTINUOUS
 62
     3
 10
100.392178951
 20
45.08
 11
99.592178951
 21
45.98
  0
LINE
  8
0
  6
CONTINUOUS
 62
     3
 10
105.692178951
 20
45.18
 11
106.892178951
 21
46.18
  0
LINE
  8
0
  6
CONTINUOUS
 62
     3
 10
107.042178951
 20
45.98
 11
105.892178951
 21
44.98
  0
LINE
  8
0
  6
CONTINUOUS
 62
     3
 10
107.254906224
 20
45.78
 11
106.403997133
 21
39.68
  0
LINE
  8
0
  6
CONTINUOUS
 62
     3
 10
107.16036077
 20
45.93
 11
107.242178951
 21
45.83
  0
LINE
  8
0
  6
CONTINUOUS
 62
     3
 10
106.792178951
 20
46.38
 11
106.996724406
 21
46.13
  0
LINE
  8
0
  6
CONTINUOUS
 62
     3
 10
105.183088042
 20
39.88
 11
105.888542588
 21
44.98
  0
LINE
  8
0
  6
CONTINUOUS
 62
     3
 10
100.41036077
 20
45.13
 11
99.675815315
 21
39.83
  0
LINE
  8
0
  6
CONTINUOUS
 62
     3
 10
105.642178951
 20
45.13
 11
100.542178951
 21
45.13
  0
LINE
  8
0
  6
CONTINUOUS
 62
     3
 10
98.427893237
 20
39.73
 11
99.27075038
 21
45.88
  0
LINE
  8
0
  6
CONTINUOUS
 62
     3
 10
99.892178951
 20
46.38
 11
106.842178951
 21
46.38
  0
LINE
  8
0
  6
CONTINUOUS
 62
     3
 10
99.892178951
 20
46.33
 11
99.842178951
 21
46.295384615
  0
LINE
  8
0
  6
CONTINUOUS
 62
     3
 10
99.542178951
 20
46.087692308
 11
99.242178951
 21
45.88
  0
LINE
  8
0
  6
CONTINUOUS
 62
     3
 10
99.792178951
 20
46.13
 11
99.742178951
 21
46.18
  0
LINE
  8
0
  6
CONTINUOUS
 62
     3
 10
99.742178951
 20
46.18
 11
99.842178951
 21
46.28
  0
LINE
  8
0
  6
CONTINUOUS
 62
     3
 10
99.592178951
 20
45.98
 11
99.542178951
 21
46.08
  0
CIRCLE
  8
0
  6
CONTINUOUS
 62
     3
 10
82.027178951
 20
33.05
 40
0.7
  0
LINE
  8
0
  6
CONTINUOUS
 62
     3
 10
48.175
 20
13.08
 11
143.175
 21
13.08
  0
LINE
  8
0
  6
CONTINUOUS
 62
     3
 10
142.675
 20
14.08
 11
48.675
 21
14.08
  0
LINE
  8
0
  6
CONTINUOUS
 62
     3
 10
121.175
 20
47.75
 11
73.425
 21
47.75
  0
LINE
  8
0
  6
CONTINUOUS
 62
     3
 10
121.175
 20
47.75
 11
121.175
 21
30.75
  0
LINE
  8
0
  6
CONTINUOUS
 62
     3
 10
70.175
 20
47.75
 11
73.925
 21
47.75
  0
LINE
  8
0
  6
CONTINUOUS
 62
     3
 10
129.675
 20
35.75
 11
133.675
 21
35.75
  0
LINE
  8
0
  6
CONTINUOUS
 62
     3
 10
129.675
 20
40.75
 11
133.675
 21
40.75
  0
LINE
  8
0
  6
CONTINUOUS
 62
     3
 10
129.675
 20
45.75
 11
133.675
 21
45.75
  0
LINE
  8
0
  6
CONTINUOUS
 62
     3
 10
129.675
 20
30.75
 11
133.675
 21
30.75
  0
LINE
  8
0
  6
CONTINUOUS
 62
     3
 10
57.175
 20
45.75
 11
61.175
 21
45.75
  0
LINE
  8
0
  6
CONTINUOUS
 62
     3
 10
57.175
 20
32.75
 11
61.175
 21
32.75
  0
TEXT
  8
0
  6
CONTINUOUS
 62
     3
 10
134.725
 20
35.65
 30
0.0
 40
2.3
  1
ＭＥ
 50
0.0
 41
0.869565217
 51
0.0
  7
KANJI7
  0
TEXT
  8
0
  6
CONTINUOUS
 62
     3
 10
134.725
 20
30.65
 30
0.0
 40
2.3
  1
ＲＥ
 50
0.0
 41
0.869565217
 51
0.0
  7
KANJI7
  0
TEXT
  8
0
  6
CONTINUOUS
 62
     3
 10
51.875
 20
45.65
 30
0.0
 40
2.3
  1
ＨＩ
 50
0.0
 41
0.869565217
 51
0.0
  7
KANJI7
  0
TEXT
  8
0
  6
CONTINUOUS
 62
     3
 10
51.875
 20
38.15
 30
0.0
 40
2.3
  1
ＧＯ
 50
0.0
 41
0.869565217
 51
0.0
  7
KANJI7
  0
TEXT
  8
0
  6
CONTINUOUS
 62
     3
 10
51.875
 20
30.65
 30
0.0
 40
2.3
  1
ＬＯ
 50
0.0
 41
0.869565217
 51
0.0
  7
KANJI7
  0
TEXT
  8
0
  6
CONTINUOUS
 62
     3
 10
134.725
 20
45.65
 30
0.0
 40
2.3
  1
ＰＨ
 50
0.0
 41
0.869565217
 51
0.0
  7
KANJI7
  0
TEXT
  8
0
  6
CONTINUOUS
 62
     3
 10
134.725
 20
40.65
 30
0.0
 40
2.3
  1
ＤＺ
 50
0.0
 41
0.869565217
 51
0.0
  7
KANJI7
  0
LINE
  8
0
  6
CONTINUOUS
 62
     3
 10
64.675
 20
39.85
 11
64.675
 21
38.65
  0
LINE
  8
0
  6
CONTINUOUS
 62
     3
 10
64.675
 20
38.65
 11
67.675
 21
38.65
  0
LINE
  8
0
  6
CONTINUOUS
 62
     3
 10
67.675
 20
39.85
 11
64.675
 21
39.85
  0
LINE
  8
0
  6
CONTINUOUS
 62
     3
 10
67.675
 20
38.65
 11
67.675
 21
39.85
  0
LINE
  8
0
  6
CONTINUOUS
 62
     3
 10
78.175
 20
23.25
 11
78.175
 21
20.75
  0
TEXT
  8
0
  6
CONTINUOUS
 62
     3
 10
58.425
 20
20.5
 30
0.0
 40
3.0
  1
Ｅ
 50
0.0
 41
0.88
 51
0.0
  7
KANJI8
  0
TEXT
  8
0
  6
CONTINUOUS
 62
     3
 10
68.425
 20
20.5
 30
0.0
 40
3.0
  1
Ｍ
 50
0.0
 41
0.88
 51
0.0
  7
KANJI8
  0
ARC
  8
0
  6
CONTINUOUS
 62
     1
 10
62.675
 20
25.0
 40
1.0
 50
0.0
 51
90.0
  0
ARC
  8
0
  6
CONTINUOUS
 62
     1
 10
56.675
 20
25.0
 40
1.0
 50
90.0
 51
180.0
  0
LINE
  8
0
  6
CONTINUOUS
 62
     1
 10
62.675
 20
26.0
 11
56.675
 21
26.0
  0
ARC
  8
0
  6
CONTINUOUS
 62
     1
 10
62.675
 20
25.0
 40
0.5
 50
0.0
 51
90.0
  0
LINE
  8
0
  6
CONTINUOUS
 62
     1
 10
62.675
 20
25.5
 11
56.675
 21
25.5
  0
ARC
  8
0
  6
CONTINUOUS
 62
     1
 10
56.675
 20
25.0
 40
0.5
 50
90.0
 51
180.0
  0
ARC
  8
0
  6
CONTINUOUS
 62
     1
 10
62.675
 20
19.0
 40
1.0
 50
270.0
 51
0.0
  0
ARC
  8
0
  6
CONTINUOUS
 62
     1
 10
56.675
 20
19.0
 40
1.0
 50
180.0
 51
270.0
  0
LINE
  8
0
  6
CONTINUOUS
 62
     1
 10
56.675
 20
18.0
 11
62.675
 21
18.0
  0
LINE
  8
0
  6
CONTINUOUS
 62
     1
 10
56.675
 20
18.5
 11
62.675
 21
18.5
  0
ARC
  8
0
  6
CONTINUOUS
 62
     1
 10
62.675
 20
19.0
 40
0.5
 50
270.0
 51
0.0
  0
ARC
  8
0
  6
CONTINUOUS
 62
     1
 10
56.675
 20
19.0
 40
0.5
 50
180.0
 51
270.0
  0
LINE
  8
0
  6
CONTINUOUS
 62
     1
 10
63.675
 20
19.0
 11
63.675
 21
25.0
  0
LINE
  8
0
  6
CONTINUOUS
 62
     1
 10
55.675
 20
25.0
 11
55.675
 21
19.0
  0
LINE
  8
0
  6
CONTINUOUS
 62
     1
 10
63.175
 20
19.0
 11
63.175
 21
25.0
  0
LINE
  8
0
  6
CONTINUOUS
 62
     1
 10
56.175
 20
25.0
 11
56.175
 21
19.0
  0
ARC
  8
0
  6
CONTINUOUS
 62
     1
 10
72.675
 20
19.0
 40
1.0
 50
270.0
 51
0.0
  0
ARC
  8
0
  6
CONTINUOUS
 62
     1
 10
66.675
 20
19.0
 40
1.0
 50
180.0
 51
270.0
  0
LINE
  8
0
  6
CONTINUOUS
 62
     1
 10
66.675
 20
18.0
 11
72.675
 21
18.0
  0
LINE
  8
0
  6
CONTINUOUS
 62
     1
 10
73.675
 20
19.0
 11
73.675
 21
24.02
  0
ARC
  8
0
  6
CONTINUOUS
 62
     1
 10
66.675
 20
19.0
 40
0.5
 50
180.0
 51
270.0
  0
ARC
  8
0
  6
CONTINUOUS
 62
     1
 10
72.675
 20
19.0
 40
0.5
 50
270.0
 51
0.0
  0
LINE
  8
0
  6
CONTINUOUS
 62
     1
 10
66.675
 20
18.5
 11
72.675
 21
18.5
  0
ARC
  8
0
  6
CONTINUOUS
 62
     1
 10
72.675
 20
25.0
 40
1.0
 50
0.0
 51
90.0
  0
LINE
  8
0
  6
CONTINUOUS
 62
     1
 10
73.675
 20
24.0
 11
73.675
 21
25.0
  0
ARC
  8
0
  6
CONTINUOUS
 62
     1
 10
66.675
 20
25.0
 40
1.0
 50
90.0
 51
180.0
  0
LINE
  8
0
  6
CONTINUOUS
 62
     1
 10
72.675
 20
26.0
 11
66.675
 21
26.0
  0
ARC
  8
0
  6
CONTINUOUS
 62
     1
 10
72.675
 20
25.0
 40
0.5
 50
0.0
 51
90.0
  0
LINE
  8
0
  6
CONTINUOUS
 62
     1
 10
72.675
 20
25.5
 11
66.675
 21
25.5
  0
ARC
  8
0
  6
CONTINUOUS
 62
     1
 10
66.675
 20
25.0
 40
0.5
 50
90.0
 51
180.0
  0
LINE
  8
0
  6
CONTINUOUS
 62
     1
 10
65.675
 20
25.0
 11
65.675
 21
19.0
  0
LINE
  8
0
  6
CONTINUOUS
 62
     1
 10
66.175
 20
25.0
 11
66.175
 21
19.0
  0
LINE
  8
0
  6
CONTINUOUS
 62
     1
 10
73.175
 20
19.0
 11
73.175
 21
25.0
  0
LINE
  8
0
  6
CONTINUOUS
 62
     1
 10
82.675
 20
26.0
 11
76.675
 21
26.0
  0
ARC
  8
0
  6
CONTINUOUS
 62
     1
 10
82.675
 20
25.0
 40
1.0
 50
0.0
 51
90.0
  0
ARC
  8
0
  6
CONTINUOUS
 62
     1
 10
82.675
 20
25.0
 40
0.5
 50
0.0
 51
90.0
  0
LINE
  8
0
  6
CONTINUOUS
 62
     1
 10
82.675
 20
25.5
 11
76.675
 21
25.5
  0
ARC
  8
0
  6
CONTINUOUS
 62
     1
 10
76.675
 20
25.0
 40
1.0
 50
90.0
 51
180.0
  0
ARC
  8
0
  6
CONTINUOUS
 62
     1
 10
76.675
 20
25.0
 40
0.5
 50
90.0
 51
180.0
  0
LINE
  8
0
  6
CONTINUOUS
 62
     1
 10
75.675
 20
19.75
 11
75.675
 21
19.0
  0
LINE
  8
0
  6
CONTINUOUS
 62
     1
 10
76.675
 20
18.0
 11
82.675
 21
18.0
  0
ARC
  8
0
  6
CONTINUOUS
 62
     1
 10
76.675
 20
19.0
 40
1.0
 50
180.0
 51
270.0
  0
ARC
  8
0
  6
CONTINUOUS
 62
     1
 10
82.675
 20
19.0
 40
1.0
 50
270.0
 51
0.0
  0
ARC
  8
0
  6
CONTINUOUS
 62
     1
 10
76.675
 20
19.0
 40
0.5
 50
180.0
 51
270.0
  0
LINE
  8
0
  6
CONTINUOUS
 62
     1
 10
76.675
 20
18.5
 11
82.675
 21
18.5
  0
ARC
  8
0
  6
CONTINUOUS
 62
     1
 10
82.675
 20
19.0
 40
0.5
 50
270.0
 51
0.0
  0
LINE
  8
0
  6
CONTINUOUS
 62
     1
 10
83.675
 20
19.0
 11
83.675
 21
25.0
  0
LINE
  8
0
  6
CONTINUOUS
 62
     1
 10
83.175
 20
19.0
 11
83.175
 21
25.0
  0
LINE
  8
0
  6
CONTINUOUS
 62
     1
 10
75.675
 20
25.0
 11
75.675
 21
19.43
  0
LINE
  8
0
  6
CONTINUOUS
 62
     1
 10
76.175
 20
25.0
 11
76.175
 21
19.0
  0
ARC
  8
0
  6
CONTINUOUS
 62
     1
 10
86.675
 20
25.0
 40
1.0
 50
90.0
 51
180.0
  0
ARC
  8
0
  6
CONTINUOUS
 62
     1
 10
86.675
 20
25.0
 40
0.5
 50
90.0
 51
180.0
  0
LINE
  8
0
  6
CONTINUOUS
 62
     1
 10
85.675
 20
25.0
 11
85.675
 21
19.0
  0
LINE
  8
0
  6
CONTINUOUS
 62
     1
 10
86.175
 20
25.0
 11
86.175
 21
19.0
  0
ARC
  8
0
  6
CONTINUOUS
 62
     1
 10
86.675
 20
19.0
 40
1.0
 50
180.0
 51
270.0
  0
ARC
  8
0
  6
CONTINUOUS
 62
     1
 10
86.675
 20
19.0
 40
0.5
 50
180.0
 51
270.0
  0
LINE
  8
0
  6
CONTINUOUS
 62
     1
 10
55.70479456
 20
25.242283729
 11
56.432716271
 21
25.97020544
  0
LINE
  8
0
  6
CONTINUOUS
 62
     1
 10
56.886774901
 20
26.0
 11
55.675
 21
24.788225099
  0
LINE
  8
0
  6
CONTINUOUS
 62
     1
 10
55.675
 20
24.363961031
 11
56.175
 21
24.863961031
  0
LINE
  8
0
  6
CONTINUOUS
 62
     1
 10
56.811038969
 20
25.5
 11
57.311038969
 21
26.0
  0
LINE
  8
0
  6
CONTINUOUS
 62
     1
 10
57.735303038
 20
26.0
 11
57.235303038
 21
25.5
  0
LINE
  8
0
  6
CONTINUOUS
 62
     1
 10
56.175
 20
24.439696962
 11
55.675
 21
23.939696962
  0
LINE
  8
0
  6
CONTINUOUS
 62
     1
 10
55.675
 20
23.515432893
 11
56.175
 21
24.015432893
  0
LINE
  8
0
  6
CONTINUOUS
 62
     1
 10
57.659567107
 20
25.5
 11
58.159567107
 21
26.0
  0
LINE
  8
0
  6
CONTINUOUS
 62
     1
 10
58.583831175
 20
26.0
 11
58.083831175
 21
25.5
  0
LINE
  8
0
  6
CONTINUOUS
 62
     1
 10
56.175
 20
23.591168825
 11
55.675
 21
23.091168825
  0
LINE
  8
0
  6
CONTINUOUS
 62
     1
 10
55.675
 20
22.666904756
 11
56.175
 21
23.166904756
  0
LINE
  8
0
  6
CONTINUOUS
 62
     1
 10
58.508095244
 20
25.5
 11
59.008095244
 21
26.0
  0
LINE
  8
0
  6
CONTINUOUS
 62
     1
 10
59.432359313
 20
26.0
 11
58.932359313
 21
25.5
  0
LINE
  8
0
  6
CONTINUOUS
 62
     1
 10
56.175
 20
22.742640687
 11
55.675
 21
22.242640687
  0
LINE
  8
0
  6
CONTINUOUS
 62
     1
 10
55.675
 20
21.818376618
 11
56.175
 21
22.318376618
  0
LINE
  8
0
  6
CONTINUOUS
 62
     1
 10
59.356623382
 20
25.5
 11
59.856623382
 21
26.0
  0
LINE
  8
0
  6
CONTINUOUS
 62
     1
 10
60.28088745
 20
26.0
 11
59.78088745
 21
25.5
  0
LINE
  8
0
  6
CONTINUOUS
 62
     1
 10
56.175
 20
21.89411255
 11
55.675
 21
21.39411255
  0
LINE
  8
0
  6
CONTINUOUS
 62
     1
 10
55.675
 20
20.969848481
 11
56.175
 21
21.469848481
  0
LINE
  8
0
  6
CONTINUOUS
 62
     1
 10
60.205151519
 20
25.5
 11
60.705151519
 21
26.0
  0
LINE
  8
0
  6
CONTINUOUS
 62
     1
 10
61.129415588
 20
26.0
 11
60.629415588
 21
25.5
  0
LINE
  8
0
  6
CONTINUOUS
 62
     1
 10
56.175
 20
21.045584412
 11
55.675
 21
20.545584412
  0
LINE
  8
0
  6
CONTINUOUS
 62
     1
 10
55.675
 20
20.121320344
 11
56.175
 21
20.621320344
  0
LINE
  8
0
  6
CONTINUOUS
 62
     1
 10
61.053679656
 20
25.5
 11
61.553679656
 21
26.0
  0
LINE
  8
0
  6
CONTINUOUS
 62
     1
 10
61.977943725
 20
26.0
 11
61.477943725
 21
25.5
  0
LINE
  8
0
  6
CONTINUOUS
 62
     1
 10
56.175
 20
20.197056275
 11
55.675
 21
19.697056275
  0
LINE
  8
0
  6
CONTINUOUS
 62
     1
 10
55.675
 20
19.272792206
 11
56.175
 21
19.772792206
  0
LINE
  8
0
  6
CONTINUOUS
 62
     1
 10
61.902207794
 20
25.5
 11
62.402207794
 21
26.0
  0
LINE
  8
0
  6
CONTINUOUS
 62
     1
 10
62.816421356
 20
25.989949494
 11
62.326471863
 21
25.5
  0
LINE
  8
0
  6
CONTINUOUS
 62
     1
 10
56.175
 20
19.348528137
 11
55.685050506
 21
18.858578644
  0
LINE
  8
0
  6
CONTINUOUS
 62
     1
 10
55.788331087
 20
18.537595156
 11
56.180025253
 21
18.929289322
  0
LINE
  8
0
  6
CONTINUOUS
 62
     1
 10
62.745710678
 20
25.494974747
 11
63.137404844
 21
25.886668913
  0
LINE
  8
0
  6
CONTINUOUS
 62
     1
 10
63.382106781
 20
25.707106781
 11
63.028553391
 21
25.353553391
  0
LINE
  8
0
  6
CONTINUOUS
 62
     1
 10
56.321446609
 20
18.646446609
 11
55.967893219
 21
18.292893219
  0
LINE
  8
0
  6
CONTINUOUS
 62
     1
 10
56.212595156
 20
18.113331087
 11
56.604289322
 21
18.505025253
  0
LINE
  8
0
  6
CONTINUOUS
 62
     1
 10
63.169974747
 20
25.070710678
 11
63.561668913
 21
25.462404844
  0
LINE
  8
0
  6
CONTINUOUS
 62
     1
 10
63.664949494
 20
25.141421356
 11
63.175
 21
24.651471863
  0
LINE
  8
0
  6
CONTINUOUS
 62
     1
 10
57.023528137
 20
18.5
 11
56.533578644
 21
18.010050506
  0
LINE
  8
0
  6
CONTINUOUS
 62
     1
 10
56.947792206
 20
18.0
 11
57.447792206
 21
18.5
  0
LINE
  8
0
  6
CONTINUOUS
 62
     1
 10
63.175
 20
24.227207794
 11
63.675
 21
24.727207794
  0
LINE
  8
0
  6
CONTINUOUS
 62
     1
 10
63.675
 20
24.302943725
 11
63.175
 21
23.802943725
  0
LINE
  8
0
  6
CONTINUOUS
 62
     1
 10
57.872056275
 20
18.5
 11
57.372056275
 21
18.0
  0
LINE
  8
0
  6
CONTINUOUS
 62
     1
 10
57.796320344
 20
18.0
 11
58.296320344
 21
18.5
  0
LINE
  8
0
  6
CONTINUOUS
 62
     1
 10
63.175
 20
23.378679656
 11
63.675
 21
23.878679656
  0
LINE
  8
0
  6
CONTINUOUS
 62
     1
 10
63.675
 20
23.454415588
 11
63.175
 21
22.954415588
  0
LINE
  8
0
  6
CONTINUOUS
 62
     1
 10
58.720584412
 20
18.5
 11
58.220584412
 21
18.0
  0
LINE
  8
0
  6
CONTINUOUS
 62
     1
 10
58.644848481
 20
18.0
 11
59.144848481
 21
18.5
  0
LINE
  8
0
  6
CONTINUOUS
 62
     1
 10
63.175
 20
22.530151519
 11
63.675
 21
23.030151519
  0
LINE
  8
0
  6
CONTINUOUS
 62
     1
 10
63.675
 20
22.60588745
 11
63.175
 21
22.10588745
  0
LINE
  8
0
  6
CONTINUOUS
 62
     1
 10
59.56911255
 20
18.5
 11
59.06911255
 21
18.0
  0
LINE
  8
0
  6
CONTINUOUS
 62
     1
 10
59.493376618
 20
18.0
 11
59.993376618
 21
18.5
  0
LINE
  8
0
  6
CONTINUOUS
 62
     1
 10
63.175
 20
21.681623382
 11
63.675
 21
22.181623382
  0
LINE
  8
0
  6
CONTINUOUS
 62
     1
 10
63.675
 20
21.757359313
 11
63.175
 21
21.257359313
  0
LINE
  8
0
  6
CONTINUOUS
 62
     1
 10
60.417640687
 20
18.5
 11
59.917640687
 21
18.0
  0
LINE
  8
0
  6
CONTINUOUS
 62
     1
 10
60.341904756
 20
18.0
 11
60.841904756
 21
18.5
  0
LINE
  8
0
  6
CONTINUOUS
 62
     1
 10
63.175
 20
20.833095244
 11
63.675
 21
21.333095244
  0
LINE
  8
0
  6
CONTINUOUS
 62
     1
 10
63.675
 20
20.908831175
 11
63.175
 21
20.408831175
  0
LINE
  8
0
  6
CONTINUOUS
 62
     1
 10
61.266168825
 20
18.5
 11
60.766168825
 21
18.0
  0
LINE
  8
0
  6
CONTINUOUS
 62
     1
 10
61.190432893
 20
18.0
 11
61.690432893
 21
18.5
  0
LINE
  8
0
  6
CONTINUOUS
 62
     1
 10
63.175
 20
19.984567107
 11
63.675
 21
20.484567107
  0
LINE
  8
0
  6
CONTINUOUS
 62
     1
 10
63.675
 20
20.060303038
 11
63.175
 21
19.560303038
  0
LINE
  8
0
  6
CONTINUOUS
 62
     1
 10
62.114696962
 20
18.5
 11
61.614696962
 21
18.0
  0
LINE
  8
0
  6
CONTINUOUS
 62
     1
 10
62.038961031
 20
18.0
 11
62.538961031
 21
18.5
  0
LINE
  8
0
  6
CONTINUOUS
 62
     1
 10
63.175
 20
19.136038969
 11
63.675
 21
19.636038969
  0
LINE
  8
0
  6
CONTINUOUS
 62
     1
 10
63.675
 20
19.211774901
 11
62.463225099
 21
18.0
  0
LINE
  8
0
  6
CONTINUOUS
 62
     1
 10
62.917283729
 20
18.02979456
 11
63.64520544
 21
18.757716271
  0
LINE
  8
0
  6
CONTINUOUS
 62
     1
 10
56.432716271
 20
18.02979456
 11
55.70479456
 21
18.757716271
  0
LINE
  8
0
  6
CONTINUOUS
 62
     1
 10
55.675
 20
19.211774901
 11
56.886774901
 21
18.0
  0
LINE
  8
0
  6
CONTINUOUS
 62
     1
 10
57.311038969
 20
18.0
 11
56.811038969
 21
18.5
  0
LINE
  8
0
  6
CONTINUOUS
 62
     1
 10
56.175
 20
19.136038969
 11
55.675
 21
19.636038969
  0
LINE
  8
0
  6
CONTINUOUS
 62
     1
 10
55.675
 20
20.060303038
 11
56.175
 21
19.560303038
  0
LINE
  8
0
  6
CONTINUOUS
 62
     1
 10
57.235303038
 20
18.5
 11
57.735303038
 21
18.0
  0
LINE
  8
0
  6
CONTINUOUS
 62
     1
 10
58.159567107
 20
18.0
 11
57.659567107
 21
18.5
  0
LINE
  8
0
  6
CONTINUOUS
 62
     1
 10
56.175
 20
19.984567107
 11
55.675
 21
20.484567107
  0
LINE
  8
0
  6
CONTINUOUS
 62
     1
 10
55.675
 20
20.908831175
 11
56.175
 21
20.408831175
  0
LINE
  8
0
  6
CONTINUOUS
 62
     1
 10
58.083831175
 20
18.5
 11
58.583831175
 21
18.0
  0
LINE
  8
0
  6
CONTINUOUS
 62
     1
 10
59.008095244
 20
18.0
 11
58.508095244
 21
18.5
  0
LINE
  8
0
  6
CONTINUOUS
 62
     1
 10
56.175
 20
20.833095244
 11
55.675
 21
21.333095244
  0
LINE
  8
0
  6
CONTINUOUS
 62
     1
 10
55.675
 20
21.757359313
 11
56.175
 21
21.257359313
  0
LINE
  8
0
  6
CONTINUOUS
 62
     1
 10
58.932359313
 20
18.5
 11
59.432359313
 21
18.0
  0
LINE
  8
0
  6
CONTINUOUS
 62
     1
 10
59.856623382
 20
18.0
 11
59.356623382
 21
18.5
  0
LINE
  8
0
  6
CONTINUOUS
 62
     1
 10
56.175
 20
21.681623382
 11
55.675
 21
22.181623382
  0
LINE
  8
0
  6
CONTINUOUS
 62
     1
 10
55.675
 20
22.60588745
 11
56.175
 21
22.10588745
  0
LINE
  8
0
  6
CONTINUOUS
 62
     1
 10
59.78088745
 20
18.5
 11
60.28088745
 21
18.0
  0
LINE
  8
0
  6
CONTINUOUS
 62
     1
 10
60.705151519
 20
18.0
 11
60.205151519
 21
18.5
  0
LINE
  8
0
  6
CONTINUOUS
 62
     1
 10
56.175
 20
22.530151519
 11
55.675
 21
23.030151519
  0
LINE
  8
0
  6
CONTINUOUS
 62
     1
 10
55.675
 20
23.454415588
 11
56.175
 21
22.954415588
  0
LINE
  8
0
  6
CONTINUOUS
 62
     1
 10
60.629415588
 20
18.5
 11
61.129415588
 21
18.0
  0
LINE
  8
0
  6
CONTINUOUS
 62
     1
 10
61.553679656
 20
18.0
 11
61.053679656
 21
18.5
  0
LINE
  8
0
  6
CONTINUOUS
 62
     1
 10
56.175
 20
23.378679656
 11
55.675
 21
23.878679656
  0
LINE
  8
0
  6
CONTINUOUS
 62
     1
 10
55.675
 20
24.302943725
 11
56.175
 21
23.802943725
  0
LINE
  8
0
  6
CONTINUOUS
 62
     1
 10
61.477943725
 20
18.5
 11
61.977943725
 21
18.0
  0
LINE
  8
0
  6
CONTINUOUS
 62
     1
 10
62.402207794
 20
18.0
 11
61.902207794
 21
18.5
  0
LINE
  8
0
  6
CONTINUOUS
 62
     1
 10
56.175
 20
24.227207794
 11
55.675
 21
24.727207794
  0
LINE
  8
0
  6
CONTINUOUS
 62
     1
 10
55.685050506
 20
25.141421356
 11
56.175
 21
24.651471863
  0
LINE
  8
0
  6
CONTINUOUS
 62
     1
 10
62.326471863
 20
18.5
 11
62.816421356
 21
18.010050506
  0
LINE
  8
0
  6
CONTINUOUS
 62
     1
 10
63.137404844
 20
18.113331087
 11
62.745710678
 21
18.505025253
  0
LINE
  8
0
  6
CONTINUOUS
 62
     1
 10
56.180025253
 20
25.070710678
 11
55.788331087
 21
25.462404844
  0
LINE
  8
0
  6
CONTINUOUS
 62
     1
 10
55.967893219
 20
25.707106781
 11
56.321446609
 21
25.353553391
  0
LINE
  8
0
  6
CONTINUOUS
 62
     1
 10
63.028553391
 20
18.646446609
 11
63.382106781
 21
18.292893219
  0
LINE
  8
0
  6
CONTINUOUS
 62
     1
 10
63.561668913
 20
18.537595156
 11
63.169974747
 21
18.929289322
  0
LINE
  8
0
  6
CONTINUOUS
 62
     1
 10
56.604289322
 20
25.494974747
 11
56.212595156
 21
25.886668913
  0
LINE
  8
0
  6
CONTINUOUS
 62
     1
 10
56.533578644
 20
25.989949494
 11
57.023528137
 21
25.5
  0
LINE
  8
0
  6
CONTINUOUS
 62
     1
 10
63.175
 20
19.348528137
 11
63.664949494
 21
18.858578644
  0
LINE
  8
0
  6
CONTINUOUS
 62
     1
 10
63.675
 20
19.272792206
 11
63.175
 21
19.772792206
  0
LINE
  8
0
  6
CONTINUOUS
 62
     1
 10
57.447792206
 20
25.5
 11
56.947792206
 21
26.0
  0
LINE
  8
0
  6
CONTINUOUS
 62
     1
 10
57.372056275
 20
26.0
 11
57.872056275
 21
25.5
  0
LINE
  8
0
  6
CONTINUOUS
 62
     1
 10
63.175
 20
20.197056275
 11
63.675
 21
19.697056275
  0
LINE
  8
0
  6
CONTINUOUS
 62
     1
 10
63.675
 20
20.121320344
 11
63.175
 21
20.621320344
  0
LINE
  8
0
  6
CONTINUOUS
 62
     1
 10
58.296320344
 20
25.5
 11
57.796320344
 21
26.0
  0
LINE
  8
0
  6
CONTINUOUS
 62
     1
 10
58.220584412
 20
26.0
 11
58.720584412
 21
25.5
  0
LINE
  8
0
  6
CONTINUOUS
 62
     1
 10
63.175
 20
21.045584412
 11
63.675
 21
20.545584412
  0
LINE
  8
0
  6
CONTINUOUS
 62
     1
 10
63.675
 20
20.969848481
 11
63.175
 21
21.469848481
  0
LINE
  8
0
  6
CONTINUOUS
 62
     1
 10
59.144848481
 20
25.5
 11
58.644848481
 21
26.0
  0
LINE
  8
0
  6
CONTINUOUS
 62
     1
 10
59.06911255
 20
26.0
 11
59.56911255
 21
25.5
  0
LINE
  8
0
  6
CONTINUOUS
 62
     1
 10
63.175
 20
21.89411255
 11
63.675
 21
21.39411255
  0
LINE
  8
0
  6
CONTINUOUS
 62
     1
 10
63.675
 20
21.818376618
 11
63.175
 21
22.318376618
  0
LINE
  8
0
  6
CONTINUOUS
 62
     1
 10
59.993376618
 20
25.5
 11
59.493376618
 21
26.0
  0
LINE
  8
0
  6
CONTINUOUS
 62
     1
 10
59.917640687
 20
26.0
 11
60.417640687
 21
25.5
  0
LINE
  8
0
  6
CONTINUOUS
 62
     1
 10
63.175
 20
22.742640687
 11
63.675
 21
22.242640687
  0
LINE
  8
0
  6
CONTINUOUS
 62
     1
 10
63.675
 20
22.666904756
 11
63.175
 21
23.166904756
  0
LINE
  8
0
  6
CONTINUOUS
 62
     1
 10
60.841904756
 20
25.5
 11
60.341904756
 21
26.0
  0
LINE
  8
0
  6
CONTINUOUS
 62
     1
 10
60.766168825
 20
26.0
 11
61.266168825
 21
25.5
  0
LINE
  8
0
  6
CONTINUOUS
 62
     1
 10
63.175
 20
23.591168825
 11
63.675
 21
23.091168825
  0
LINE
  8
0
  6
CONTINUOUS
 62
     1
 10
63.675
 20
23.515432893
 11
63.175
 21
24.015432893
  0
LINE
  8
0
  6
CONTINUOUS
 62
     1
 10
61.690432893
 20
25.5
 11
61.190432893
 21
26.0
  0
LINE
  8
0
  6
CONTINUOUS
 62
     1
 10
61.614696962
 20
26.0
 11
62.114696962
 21
25.5
  0
LINE
  8
0
  6
CONTINUOUS
 62
     1
 10
63.175
 20
24.439696962
 11
63.675
 21
23.939696962
  0
LINE
  8
0
  6
CONTINUOUS
 62
     1
 10
63.675
 20
24.363961031
 11
63.175
 21
24.863961031
  0
LINE
  8
0
  6
CONTINUOUS
 62
     1
 10
62.538961031
 20
25.5
 11
62.038961031
 21
26.0
  0
LINE
  8
0
  6
CONTINUOUS
 62
     1
 10
62.463225099
 20
26.0
 11
63.675
 21
24.788225099
  0
LINE
  8
0
  6
CONTINUOUS
 62
     1
 10
63.64520544
 20
25.242283729
 11
62.917283729
 21
25.97020544
  0
LINE
  8
0
  6
CONTINUOUS
 62
     1
 10
65.70479456
 20
25.242283729
 11
66.432716271
 21
25.97020544
  0
LINE
  8
0
  6
CONTINUOUS
 62
     1
 10
66.886774901
 20
26.0
 11
65.675
 21
24.788225099
  0
LINE
  8
0
  6
CONTINUOUS
 62
     1
 10
65.675
 20
24.363961031
 11
66.175
 21
24.863961031
  0
LINE
  8
0
  6
CONTINUOUS
 62
     1
 10
66.811038969
 20
25.5
 11
67.311038969
 21
26.0
  0
LINE
  8
0
  6
CONTINUOUS
 62
     1
 10
67.735303038
 20
26.0
 11
67.235303038
 21
25.5
  0
LINE
  8
0
  6
CONTINUOUS
 62
     1
 10
66.175
 20
24.439696962
 11
65.675
 21
23.939696962
  0
LINE
  8
0
  6
CONTINUOUS
 62
     1
 10
65.675
 20
23.515432893
 11
66.175
 21
24.015432893
  0
LINE
  8
0
  6
CONTINUOUS
 62
     1
 10
67.659567107
 20
25.5
 11
68.159567107
 21
26.0
  0
LINE
  8
0
  6
CONTINUOUS
 62
     1
 10
68.583831175
 20
26.0
 11
68.083831175
 21
25.5
  0
LINE
  8
0
  6
CONTINUOUS
 62
     1
 10
66.175
 20
23.591168825
 11
65.675
 21
23.091168825
  0
LINE
  8
0
  6
CONTINUOUS
 62
     1
 10
65.675
 20
22.666904756
 11
66.175
 21
23.166904756
  0
LINE
  8
0
  6
CONTINUOUS
 62
     1
 10
68.508095244
 20
25.5
 11
69.008095244
 21
26.0
  0
LINE
  8
0
  6
CONTINUOUS
 62
     1
 10
69.432359313
 20
26.0
 11
68.932359313
 21
25.5
  0
LINE
  8
0
  6
CONTINUOUS
 62
     1
 10
66.175
 20
22.742640687
 11
65.675
 21
22.242640687
  0
LINE
  8
0
  6
CONTINUOUS
 62
     1
 10
65.675
 20
21.818376618
 11
66.175
 21
22.318376618
  0
LINE
  8
0
  6
CONTINUOUS
 62
     1
 10
69.356623382
 20
25.5
 11
69.856623382
 21
26.0
  0
LINE
  8
0
  6
CONTINUOUS
 62
     1
 10
70.28088745
 20
26.0
 11
69.78088745
 21
25.5
  0
LINE
  8
0
  6
CONTINUOUS
 62
     1
 10
66.175
 20
21.89411255
 11
65.675
 21
21.39411255
  0
LINE
  8
0
  6
CONTINUOUS
 62
     1
 10
65.675
 20
20.969848481
 11
66.175
 21
21.469848481
  0
LINE
  8
0
  6
CONTINUOUS
 62
     1
 10
70.205151519
 20
25.5
 11
70.705151519
 21
26.0
  0
LINE
  8
0
  6
CONTINUOUS
 62
     1
 10
71.129415588
 20
26.0
 11
70.629415588
 21
25.5
  0
LINE
  8
0
  6
CONTINUOUS
 62
     1
 10
66.175
 20
21.045584412
 11
65.675
 21
20.545584412
  0
LINE
  8
0
  6
CONTINUOUS
 62
     1
 10
65.675
 20
20.121320344
 11
66.175
 21
20.621320344
  0
LINE
  8
0
  6
CONTINUOUS
 62
     1
 10
71.053679656
 20
25.5
 11
71.553679656
 21
26.0
  0
LINE
  8
0
  6
CONTINUOUS
 62
     1
 10
71.977943725
 20
26.0
 11
71.477943725
 21
25.5
  0
LINE
  8
0
  6
CONTINUOUS
 62
     1
 10
66.175
 20
20.197056275
 11
65.675
 21
19.697056275
  0
LINE
  8
0
  6
CONTINUOUS
 62
     1
 10
65.675
 20
19.272792206
 11
66.175
 21
19.772792206
  0
LINE
  8
0
  6
CONTINUOUS
 62
     1
 10
71.902207794
 20
25.5
 11
72.402207794
 21
26.0
  0
LINE
  8
0
  6
CONTINUOUS
 62
     1
 10
72.816421356
 20
25.989949494
 11
72.326471863
 21
25.5
  0
LINE
  8
0
  6
CONTINUOUS
 62
     1
 10
66.175
 20
19.348528137
 11
65.685050506
 21
18.858578644
  0
LINE
  8
0
  6
CONTINUOUS
 62
     1
 10
65.788331087
 20
18.537595156
 11
66.180025253
 21
18.929289322
  0
LINE
  8
0
  6
CONTINUOUS
 62
     1
 10
72.745710678
 20
25.494974747
 11
73.137404844
 21
25.886668913
  0
LINE
  8
0
  6
CONTINUOUS
 62
     1
 10
73.382106781
 20
25.707106781
 11
73.028553391
 21
25.353553391
  0
LINE
  8
0
  6
CONTINUOUS
 62
     1
 10
66.321446609
 20
18.646446609
 11
65.967893219
 21
18.292893219
  0
LINE
  8
0
  6
CONTINUOUS
 62
     1
 10
66.212595156
 20
18.113331087
 11
66.604289322
 21
18.505025253
  0
LINE
  8
0
  6
CONTINUOUS
 62
     1
 10
73.169974747
 20
25.070710678
 11
73.561668913
 21
25.462404844
  0
LINE
  8
0
  6
CONTINUOUS
 62
     1
 10
73.664949494
 20
25.141421356
 11
73.175
 21
24.651471863
  0
LINE
  8
0
  6
CONTINUOUS
 62
     1
 10
67.023528137
 20
18.5
 11
66.533578644
 21
18.010050506
  0
LINE
  8
0
  6
CONTINUOUS
 62
     1
 10
66.947792206
 20
18.0
 11
67.447792206
 21
18.5
  0
LINE
  8
0
  6
CONTINUOUS
 62
     1
 10
73.175
 20
24.227207794
 11
73.675
 21
24.727207794
  0
LINE
  8
0
  6
CONTINUOUS
 62
     1
 10
73.675
 20
24.302943725
 11
73.175
 21
23.802943725
  0
LINE
  8
0
  6
CONTINUOUS
 62
     1
 10
67.872056275
 20
18.5
 11
67.372056275
 21
18.0
  0
LINE
  8
0
  6
CONTINUOUS
 62
     1
 10
67.796320344
 20
18.0
 11
68.296320344
 21
18.5
  0
LINE
  8
0
  6
CONTINUOUS
 62
     1
 10
73.175
 20
23.378679656
 11
73.675
 21
23.878679656
  0
LINE
  8
0
  6
CONTINUOUS
 62
     1
 10
73.675
 20
23.454415588
 11
73.175
 21
22.954415588
  0
LINE
  8
0
  6
CONTINUOUS
 62
     1
 10
68.720584412
 20
18.5
 11
68.220584412
 21
18.0
  0
LINE
  8
0
  6
CONTINUOUS
 62
     1
 10
68.644848481
 20
18.0
 11
69.144848481
 21
18.5
  0
LINE
  8
0
  6
CONTINUOUS
 62
     1
 10
73.175
 20
22.530151519
 11
73.675
 21
23.030151519
  0
LINE
  8
0
  6
CONTINUOUS
 62
     1
 10
73.675
 20
22.60588745
 11
73.175
 21
22.10588745
  0
LINE
  8
0
  6
CONTINUOUS
 62
     1
 10
69.56911255
 20
18.5
 11
69.06911255
 21
18.0
  0
LINE
  8
0
  6
CONTINUOUS
 62
     1
 10
69.493376618
 20
18.0
 11
69.993376618
 21
18.5
  0
LINE
  8
0
  6
CONTINUOUS
 62
     1
 10
73.175
 20
21.681623382
 11
73.675
 21
22.181623382
  0
LINE
  8
0
  6
CONTINUOUS
 62
     1
 10
73.675
 20
21.757359313
 11
73.175
 21
21.257359313
  0
LINE
  8
0
  6
CONTINUOUS
 62
     1
 10
70.417640687
 20
18.5
 11
69.917640687
 21
18.0
  0
LINE
  8
0
  6
CONTINUOUS
 62
     1
 10
70.341904756
 20
18.0
 11
70.841904756
 21
18.5
  0
LINE
  8
0
  6
CONTINUOUS
 62
     1
 10
73.175
 20
20.833095244
 11
73.675
 21
21.333095244
  0
LINE
  8
0
  6
CONTINUOUS
 62
     1
 10
73.675
 20
20.908831175
 11
73.175
 21
20.408831175
  0
LINE
  8
0
  6
CONTINUOUS
 62
     1
 10
71.266168825
 20
18.5
 11
70.766168825
 21
18.0
  0
LINE
  8
0
  6
CONTINUOUS
 62
     1
 10
71.190432893
 20
18.0
 11
71.690432893
 21
18.5
  0
LINE
  8
0
  6
CONTINUOUS
 62
     1
 10
73.175
 20
19.984567107
 11
73.675
 21
20.484567107
  0
LINE
  8
0
  6
CONTINUOUS
 62
     1
 10
73.675
 20
20.060303038
 11
73.175
 21
19.560303038
  0
LINE
  8
0
  6
CONTINUOUS
 62
     1
 10
72.114696962
 20
18.5
 11
71.614696962
 21
18.0
  0
LINE
  8
0
  6
CONTINUOUS
 62
     1
 10
72.038961031
 20
18.0
 11
72.538961031
 21
18.5
  0
LINE
  8
0
  6
CONTINUOUS
 62
     1
 10
73.175
 20
19.136038969
 11
73.675
 21
19.636038969
  0
LINE
  8
0
  6
CONTINUOUS
 62
     1
 10
73.675
 20
19.211774901
 11
72.463225099
 21
18.0
  0
LINE
  8
0
  6
CONTINUOUS
 62
     1
 10
72.917283729
 20
18.02979456
 11
73.64520544
 21
18.757716271
  0
LINE
  8
0
  6
CONTINUOUS
 62
     1
 10
66.432716271
 20
18.02979456
 11
65.70479456
 21
18.757716271
  0
LINE
  8
0
  6
CONTINUOUS
 62
     1
 10
65.675
 20
19.211774901
 11
66.886774901
 21
18.0
  0
LINE
  8
0
  6
CONTINUOUS
 62
     1
 10
67.311038969
 20
18.0
 11
66.811038969
 21
18.5
  0
LINE
  8
0
  6
CONTINUOUS
 62
     1
 10
66.175
 20
19.136038969
 11
65.675
 21
19.636038969
  0
LINE
  8
0
  6
CONTINUOUS
 62
     1
 10
65.675
 20
20.060303038
 11
66.175
 21
19.560303038
  0
LINE
  8
0
  6
CONTINUOUS
 62
     1
 10
67.235303038
 20
18.5
 11
67.735303038
 21
18.0
  0
LINE
  8
0
  6
CONTINUOUS
 62
     1
 10
68.159567107
 20
18.0
 11
67.659567107
 21
18.5
  0
LINE
  8
0
  6
CONTINUOUS
 62
     1
 10
66.175
 20
19.984567107
 11
65.675
 21
20.484567107
  0
LINE
  8
0
  6
CONTINUOUS
 62
     1
 10
65.675
 20
20.908831175
 11
66.175
 21
20.408831175
  0
LINE
  8
0
  6
CONTINUOUS
 62
     1
 10
68.083831175
 20
18.5
 11
68.583831175
 21
18.0
  0
LINE
  8
0
  6
CONTINUOUS
 62
     1
 10
69.008095244
 20
18.0
 11
68.508095244
 21
18.5
  0
LINE
  8
0
  6
CONTINUOUS
 62
     1
 10
66.175
 20
20.833095244
 11
65.675
 21
21.333095244
  0
LINE
  8
0
  6
CONTINUOUS
 62
     1
 10
65.675
 20
21.757359313
 11
66.175
 21
21.257359313
  0
LINE
  8
0
  6
CONTINUOUS
 62
     1
 10
68.932359313
 20
18.5
 11
69.432359313
 21
18.0
  0
LINE
  8
0
  6
CONTINUOUS
 62
     1
 10
69.856623382
 20
18.0
 11
69.356623382
 21
18.5
  0
LINE
  8
0
  6
CONTINUOUS
 62
     1
 10
66.175
 20
21.681623382
 11
65.675
 21
22.181623382
  0
LINE
  8
0
  6
CONTINUOUS
 62
     1
 10
65.675
 20
22.60588745
 11
66.175
 21
22.10588745
  0
LINE
  8
0
  6
CONTINUOUS
 62
     1
 10
69.78088745
 20
18.5
 11
70.28088745
 21
18.0
  0
LINE
  8
0
  6
CONTINUOUS
 62
     1
 10
70.705151519
 20
18.0
 11
70.205151519
 21
18.5
  0
LINE
  8
0
  6
CONTINUOUS
 62
     1
 10
66.175
 20
22.530151519
 11
65.675
 21
23.030151519
  0
LINE
  8
0
  6
CONTINUOUS
 62
     1
 10
65.675
 20
23.454415588
 11
66.175
 21
22.954415588
  0
LINE
  8
0
  6
CONTINUOUS
 62
     1
 10
70.629415588
 20
18.5
 11
71.129415588
 21
18.0
  0
LINE
  8
0
  6
CONTINUOUS
 62
     1
 10
71.553679656
 20
18.0
 11
71.053679656
 21
18.5
  0
LINE
  8
0
  6
CONTINUOUS
 62
     1
 10
66.175
 20
23.378679656
 11
65.675
 21
23.878679656
  0
LINE
  8
0
  6
CONTINUOUS
 62
     1
 10
65.675
 20
24.302943725
 11
66.175
 21
23.802943725
  0
LINE
  8
0
  6
CONTINUOUS
 62
     1
 10
71.477943725
 20
18.5
 11
71.977943725
 21
18.0
  0
LINE
  8
0
  6
CONTINUOUS
 62
     1
 10
72.402207794
 20
18.0
 11
71.902207794
 21
18.5
  0
LINE
  8
0
  6
CONTINUOUS
 62
     1
 10
66.175
 20
24.227207794
 11
65.675
 21
24.727207794
  0
LINE
  8
0
  6
CONTINUOUS
 62
     1
 10
65.685050506
 20
25.141421356
 11
66.175
 21
24.651471863
  0
LINE
  8
0
  6
CONTINUOUS
 62
     1
 10
72.326471863
 20
18.5
 11
72.816421356
 21
18.010050506
  0
LINE
  8
0
  6
CONTINUOUS
 62
     1
 10
73.137404844
 20
18.113331087
 11
72.745710678
 21
18.505025253
  0
LINE
  8
0
  6
CONTINUOUS
 62
     1
 10
66.180025253
 20
25.070710678
 11
65.788331087
 21
25.462404844
  0
LINE
  8
0
  6
CONTINUOUS
 62
     1
 10
65.967893219
 20
25.707106781
 11
66.321446609
 21
25.353553391
  0
LINE
  8
0
  6
CONTINUOUS
 62
     1
 10
73.028553391
 20
18.646446609
 11
73.382106781
 21
18.292893219
  0
LINE
  8
0
  6
CONTINUOUS
 62
     1
 10
73.561668913
 20
18.537595156
 11
73.169974747
 21
18.929289322
  0
LINE
  8
0
  6
CONTINUOUS
 62
     1
 10
66.604289322
 20
25.494974747
 11
66.212595156
 21
25.886668913
  0
LINE
  8
0
  6
CONTINUOUS
 62
     1
 10
66.533578644
 20
25.989949494
 11
67.023528137
 21
25.5
  0
LINE
  8
0
  6
CONTINUOUS
 62
     1
 10
73.175
 20
19.348528137
 11
73.664949494
 21
18.858578644
  0
LINE
  8
0
  6
CONTINUOUS
 62
     1
 10
73.675
 20
19.272792206
 11
73.175
 21
19.772792206
  0
LINE
  8
0
  6
CONTINUOUS
 62
     1
 10
67.447792206
 20
25.5
 11
66.947792206
 21
26.0
  0
LINE
  8
0
  6
CONTINUOUS
 62
     1
 10
67.372056275
 20
26.0
 11
67.872056275
 21
25.5
  0
LINE
  8
0
  6
CONTINUOUS
 62
     1
 10
73.175
 20
20.197056275
 11
73.675
 21
19.697056275
  0
LINE
  8
0
  6
CONTINUOUS
 62
     1
 10
73.675
 20
20.121320344
 11
73.175
 21
20.621320344
  0
LINE
  8
0
  6
CONTINUOUS
 62
     1
 10
68.296320344
 20
25.5
 11
67.796320344
 21
26.0
  0
LINE
  8
0
  6
CONTINUOUS
 62
     1
 10
68.220584412
 20
26.0
 11
68.720584412
 21
25.5
  0
LINE
  8
0
  6
CONTINUOUS
 62
     1
 10
73.175
 20
21.045584412
 11
73.675
 21
20.545584412
  0
LINE
  8
0
  6
CONTINUOUS
 62
     1
 10
73.675
 20
20.969848481
 11
73.175
 21
21.469848481
  0
LINE
  8
0
  6
CONTINUOUS
 62
     1
 10
69.144848481
 20
25.5
 11
68.644848481
 21
26.0
  0
LINE
  8
0
  6
CONTINUOUS
 62
     1
 10
69.06911255
 20
26.0
 11
69.56911255
 21
25.5
  0
LINE
  8
0
  6
CONTINUOUS
 62
     1
 10
73.175
 20
21.89411255
 11
73.675
 21
21.39411255
  0
LINE
  8
0
  6
CONTINUOUS
 62
     1
 10
73.675
 20
21.818376618
 11
73.175
 21
22.318376618
  0
LINE
  8
0
  6
CONTINUOUS
 62
     1
 10
69.993376618
 20
25.5
 11
69.493376618
 21
26.0
  0
LINE
  8
0
  6
CONTINUOUS
 62
     1
 10
69.917640687
 20
26.0
 11
70.417640687
 21
25.5
  0
LINE
  8
0
  6
CONTINUOUS
 62
     1
 10
73.175
 20
22.742640687
 11
73.675
 21
22.242640687
  0
LINE
  8
0
  6
CONTINUOUS
 62
     1
 10
73.675
 20
22.666904756
 11
73.175
 21
23.166904756
  0
LINE
  8
0
  6
CONTINUOUS
 62
     1
 10
70.841904756
 20
25.5
 11
70.341904756
 21
26.0
  0
LINE
  8
0
  6
CONTINUOUS
 62
     1
 10
70.766168825
 20
26.0
 11
71.266168825
 21
25.5
  0
LINE
  8
0
  6
CONTINUOUS
 62
     1
 10
73.175
 20
23.591168825
 11
73.675
 21
23.091168825
  0
LINE
  8
0
  6
CONTINUOUS
 62
     1
 10
73.675
 20
23.515432893
 11
73.175
 21
24.015432893
  0
LINE
  8
0
  6
CONTINUOUS
 62
     1
 10
71.690432893
 20
25.5
 11
71.190432893
 21
26.0
  0
LINE
  8
0
  6
CONTINUOUS
 62
     1
 10
71.614696962
 20
26.0
 11
72.114696962
 21
25.5
  0
LINE
  8
0
  6
CONTINUOUS
 62
     1
 10
73.175
 20
24.439696962
 11
73.675
 21
23.939696962
  0
LINE
  8
0
  6
CONTINUOUS
 62
     1
 10
73.675
 20
24.363961031
 11
73.175
 21
24.863961031
  0
LINE
  8
0
  6
CONTINUOUS
 62
     1
 10
72.538961031
 20
25.5
 11
72.038961031
 21
26.0
  0
LINE
  8
0
  6
CONTINUOUS
 62
     1
 10
72.463225099
 20
26.0
 11
73.675
 21
24.788225099
  0
LINE
  8
0
  6
CONTINUOUS
 62
     1
 10
73.64520544
 20
25.242283729
 11
72.917283729
 21
25.97020544
  0
LINE
  8
0
  6
CONTINUOUS
 62
     1
 10
75.70479456
 20
25.242283729
 11
76.432716271
 21
25.97020544
  0
LINE
  8
0
  6
CONTINUOUS
 62
     1
 10
76.886774901
 20
26.0
 11
75.675
 21
24.788225099
  0
LINE
  8
0
  6
CONTINUOUS
 62
     1
 10
75.675
 20
24.363961031
 11
76.175
 21
24.863961031
  0
LINE
  8
0
  6
CONTINUOUS
 62
     1
 10
76.811038969
 20
25.5
 11
77.311038969
 21
26.0
  0
LINE
  8
0
  6
CONTINUOUS
 62
     1
 10
77.735303038
 20
26.0
 11
77.235303038
 21
25.5
  0
LINE
  8
0
  6
CONTINUOUS
 62
     1
 10
76.175
 20
24.439696962
 11
75.675
 21
23.939696962
  0
LINE
  8
0
  6
CONTINUOUS
 62
     1
 10
75.675
 20
23.515432893
 11
76.175
 21
24.015432893
  0
LINE
  8
0
  6
CONTINUOUS
 62
     1
 10
77.659567107
 20
25.5
 11
78.159567107
 21
26.0
  0
LINE
  8
0
  6
CONTINUOUS
 62
     1
 10
78.583831175
 20
26.0
 11
78.083831175
 21
25.5
  0
LINE
  8
0
  6
CONTINUOUS
 62
     1
 10
76.175
 20
23.591168825
 11
75.675
 21
23.091168825
  0
LINE
  8
0
  6
CONTINUOUS
 62
     1
 10
75.675
 20
22.666904756
 11
76.175
 21
23.166904756
  0
LINE
  8
0
  6
CONTINUOUS
 62
     1
 10
78.508095244
 20
25.5
 11
79.008095244
 21
26.0
  0
LINE
  8
0
  6
CONTINUOUS
 62
     1
 10
79.432359313
 20
26.0
 11
78.932359313
 21
25.5
  0
LINE
  8
0
  6
CONTINUOUS
 62
     1
 10
76.175
 20
22.742640687
 11
75.675
 21
22.242640687
  0
LINE
  8
0
  6
CONTINUOUS
 62
     1
 10
75.675
 20
21.818376618
 11
76.175
 21
22.318376618
  0
LINE
  8
0
  6
CONTINUOUS
 62
     1
 10
79.356623382
 20
25.5
 11
79.856623382
 21
26.0
  0
LINE
  8
0
  6
CONTINUOUS
 62
     1
 10
80.28088745
 20
26.0
 11
79.78088745
 21
25.5
  0
LINE
  8
0
  6
CONTINUOUS
 62
     1
 10
76.175
 20
21.89411255
 11
75.675
 21
21.39411255
  0
LINE
  8
0
  6
CONTINUOUS
 62
     1
 10
75.675
 20
20.969848481
 11
76.175
 21
21.469848481
  0
LINE
  8
0
  6
CONTINUOUS
 62
     1
 10
80.205151519
 20
25.5
 11
80.705151519
 21
26.0
  0
LINE
  8
0
  6
CONTINUOUS
 62
     1
 10
81.129415588
 20
26.0
 11
80.629415588
 21
25.5
  0
LINE
  8
0
  6
CONTINUOUS
 62
     1
 10
76.175
 20
21.045584412
 11
75.675
 21
20.545584412
  0
LINE
  8
0
  6
CONTINUOUS
 62
     1
 10
75.675
 20
20.121320344
 11
76.175
 21
20.621320344
  0
LINE
  8
0
  6
CONTINUOUS
 62
     1
 10
81.053679656
 20
25.5
 11
81.553679656
 21
26.0
  0
LINE
  8
0
  6
CONTINUOUS
 62
     1
 10
81.977943725
 20
26.0
 11
81.477943725
 21
25.5
  0
LINE
  8
0
  6
CONTINUOUS
 62
     1
 10
76.175
 20
20.197056275
 11
75.675
 21
19.697056275
  0
LINE
  8
0
  6
CONTINUOUS
 62
     1
 10
75.675
 20
19.272792206
 11
76.175
 21
19.772792206
  0
LINE
  8
0
  6
CONTINUOUS
 62
     1
 10
81.902207794
 20
25.5
 11
82.402207794
 21
26.0
  0
LINE
  8
0
  6
CONTINUOUS
 62
     1
 10
82.816421356
 20
25.989949494
 11
82.326471863
 21
25.5
  0
LINE
  8
0
  6
CONTINUOUS
 62
     1
 10
76.175
 20
19.348528137
 11
75.685050506
 21
18.858578644
  0
LINE
  8
0
  6
CONTINUOUS
 62
     1
 10
75.788331087
 20
18.537595156
 11
76.180025253
 21
18.929289322
  0
LINE
  8
0
  6
CONTINUOUS
 62
     1
 10
82.745710678
 20
25.494974747
 11
83.137404844
 21
25.886668913
  0
LINE
  8
0
  6
CONTINUOUS
 62
     1
 10
83.382106781
 20
25.707106781
 11
83.028553391
 21
25.353553391
  0
LINE
  8
0
  6
CONTINUOUS
 62
     1
 10
76.321446609
 20
18.646446609
 11
75.967893219
 21
18.292893219
  0
LINE
  8
0
  6
CONTINUOUS
 62
     1
 10
76.212595156
 20
18.113331087
 11
76.604289322
 21
18.505025253
  0
LINE
  8
0
  6
CONTINUOUS
 62
     1
 10
83.169974747
 20
25.070710678
 11
83.561668913
 21
25.462404844
  0
LINE
  8
0
  6
CONTINUOUS
 62
     1
 10
83.664949494
 20
25.141421356
 11
83.175
 21
24.651471863
  0
LINE
  8
0
  6
CONTINUOUS
 62
     1
 10
77.023528137
 20
18.5
 11
76.533578644
 21
18.010050506
  0
LINE
  8
0
  6
CONTINUOUS
 62
     1
 10
76.947792206
 20
18.0
 11
77.447792206
 21
18.5
  0
LINE
  8
0
  6
CONTINUOUS
 62
     1
 10
83.175
 20
24.227207794
 11
83.675
 21
24.727207794
  0
LINE
  8
0
  6
CONTINUOUS
 62
     1
 10
83.675
 20
24.302943725
 11
83.175
 21
23.802943725
  0
LINE
  8
0
  6
CONTINUOUS
 62
     1
 10
77.872056275
 20
18.5
 11
77.372056275
 21
18.0
  0
LINE
  8
0
  6
CONTINUOUS
 62
     1
 10
77.796320344
 20
18.0
 11
78.296320344
 21
18.5
  0
LINE
  8
0
  6
CONTINUOUS
 62
     1
 10
83.175
 20
23.378679656
 11
83.675
 21
23.878679656
  0
LINE
  8
0
  6
CONTINUOUS
 62
     1
 10
83.675
 20
23.454415588
 11
83.175
 21
22.954415588
  0
LINE
  8
0
  6
CONTINUOUS
 62
     1
 10
78.720584412
 20
18.5
 11
78.220584412
 21
18.0
  0
LINE
  8
0
  6
CONTINUOUS
 62
     1
 10
78.644848481
 20
18.0
 11
79.144848481
 21
18.5
  0
LINE
  8
0
  6
CONTINUOUS
 62
     1
 10
83.175
 20
22.530151519
 11
83.675
 21
23.030151519
  0
LINE
  8
0
  6
CONTINUOUS
 62
     1
 10
83.675
 20
22.60588745
 11
83.175
 21
22.10588745
  0
LINE
  8
0
  6
CONTINUOUS
 62
     1
 10
79.56911255
 20
18.5
 11
79.06911255
 21
18.0
  0
LINE
  8
0
  6
CONTINUOUS
 62
     1
 10
79.493376618
 20
18.0
 11
79.993376618
 21
18.5
  0
LINE
  8
0
  6
CONTINUOUS
 62
     1
 10
83.175
 20
21.681623382
 11
83.675
 21
22.181623382
  0
LINE
  8
0
  6
CONTINUOUS
 62
     1
 10
83.675
 20
21.757359313
 11
83.175
 21
21.257359313
  0
LINE
  8
0
  6
CONTINUOUS
 62
     1
 10
80.417640687
 20
18.5
 11
79.917640687
 21
18.0
  0
LINE
  8
0
  6
CONTINUOUS
 62
     1
 10
80.341904756
 20
18.0
 11
80.841904756
 21
18.5
  0
LINE
  8
0
  6
CONTINUOUS
 62
     1
 10
83.175
 20
20.833095244
 11
83.675
 21
21.333095244
  0
LINE
  8
0
  6
CONTINUOUS
 62
     1
 10
83.675
 20
20.908831175
 11
83.175
 21
20.408831175
  0
LINE
  8
0
  6
CONTINUOUS
 62
     1
 10
81.266168825
 20
18.5
 11
80.766168825
 21
18.0
  0
LINE
  8
0
  6
CONTINUOUS
 62
     1
 10
81.190432893
 20
18.0
 11
81.690432893
 21
18.5
  0
LINE
  8
0
  6
CONTINUOUS
 62
     1
 10
83.175
 20
19.984567107
 11
83.675
 21
20.484567107
  0
LINE
  8
0
  6
CONTINUOUS
 62
     1
 10
83.675
 20
20.060303038
 11
83.175
 21
19.560303038
  0
LINE
  8
0
  6
CONTINUOUS
 62
     1
 10
82.114696962
 20
18.5
 11
81.614696962
 21
18.0
  0
LINE
  8
0
  6
CONTINUOUS
 62
     1
 10
82.038961031
 20
18.0
 11
82.538961031
 21
18.5
  0
LINE
  8
0
  6
CONTINUOUS
 62
     1
 10
83.175
 20
19.136038969
 11
83.675
 21
19.636038969
  0
LINE
  8
0
  6
CONTINUOUS
 62
     1
 10
83.675
 20
19.211774901
 11
82.463225099
 21
18.0
  0
LINE
  8
0
  6
CONTINUOUS
 62
     1
 10
82.917283729
 20
18.02979456
 11
83.64520544
 21
18.757716271
  0
LINE
  8
0
  6
CONTINUOUS
 62
     1
 10
76.432716271
 20
18.02979456
 11
75.70479456
 21
18.757716271
  0
LINE
  8
0
  6
CONTINUOUS
 62
     1
 10
75.675
 20
19.211774901
 11
76.886774901
 21
18.0
  0
LINE
  8
0
  6
CONTINUOUS
 62
     1
 10
77.311038969
 20
18.0
 11
76.811038969
 21
18.5
  0
LINE
  8
0
  6
CONTINUOUS
 62
     1
 10
76.175
 20
19.136038969
 11
75.675
 21
19.636038969
  0
LINE
  8
0
  6
CONTINUOUS
 62
     1
 10
75.675
 20
20.060303038
 11
76.175
 21
19.560303038
  0
LINE
  8
0
  6
CONTINUOUS
 62
     1
 10
77.235303038
 20
18.5
 11
77.735303038
 21
18.0
  0
LINE
  8
0
  6
CONTINUOUS
 62
     1
 10
78.159567107
 20
18.0
 11
77.659567107
 21
18.5
  0
LINE
  8
0
  6
CONTINUOUS
 62
     1
 10
76.175
 20
19.984567107
 11
75.675
 21
20.484567107
  0
LINE
  8
0
  6
CONTINUOUS
 62
     1
 10
75.675
 20
20.908831175
 11
76.175
 21
20.408831175
  0
LINE
  8
0
  6
CONTINUOUS
 62
     1
 10
78.083831175
 20
18.5
 11
78.583831175
 21
18.0
  0
LINE
  8
0
  6
CONTINUOUS
 62
     1
 10
79.008095244
 20
18.0
 11
78.508095244
 21
18.5
  0
LINE
  8
0
  6
CONTINUOUS
 62
     1
 10
76.175
 20
20.833095244
 11
75.675
 21
21.333095244
  0
LINE
  8
0
  6
CONTINUOUS
 62
     1
 10
75.675
 20
21.757359313
 11
76.175
 21
21.257359313
  0
LINE
  8
0
  6
CONTINUOUS
 62
     1
 10
78.932359313
 20
18.5
 11
79.432359313
 21
18.0
  0
LINE
  8
0
  6
CONTINUOUS
 62
     1
 10
79.856623382
 20
18.0
 11
79.356623382
 21
18.5
  0
LINE
  8
0
  6
CONTINUOUS
 62
     1
 10
76.175
 20
21.681623382
 11
75.675
 21
22.181623382
  0
LINE
  8
0
  6
CONTINUOUS
 62
     1
 10
75.675
 20
22.60588745
 11
76.175
 21
22.10588745
  0
LINE
  8
0
  6
CONTINUOUS
 62
     1
 10
79.78088745
 20
18.5
 11
80.28088745
 21
18.0
  0
LINE
  8
0
  6
CONTINUOUS
 62
     1
 10
80.705151519
 20
18.0
 11
80.205151519
 21
18.5
  0
LINE
  8
0
  6
CONTINUOUS
 62
     1
 10
76.175
 20
22.530151519
 11
75.675
 21
23.030151519
  0
LINE
  8
0
  6
CONTINUOUS
 62
     1
 10
75.675
 20
23.454415588
 11
76.175
 21
22.954415588
  0
LINE
  8
0
  6
CONTINUOUS
 62
     1
 10
80.629415588
 20
18.5
 11
81.129415588
 21
18.0
  0
LINE
  8
0
  6
CONTINUOUS
 62
     1
 10
81.553679656
 20
18.0
 11
81.053679656
 21
18.5
  0
LINE
  8
0
  6
CONTINUOUS
 62
     1
 10
76.175
 20
23.378679656
 11
75.675
 21
23.878679656
  0
LINE
  8
0
  6
CONTINUOUS
 62
     1
 10
75.675
 20
24.302943725
 11
76.175
 21
23.802943725
  0
LINE
  8
0
  6
CONTINUOUS
 62
     1
 10
81.477943725
 20
18.5
 11
81.977943725
 21
18.0
  0
LINE
  8
0
  6
CONTINUOUS
 62
     1
 10
82.402207794
 20
18.0
 11
81.902207794
 21
18.5
  0
LINE
  8
0
  6
CONTINUOUS
 62
     1
 10
76.175
 20
24.227207794
 11
75.675
 21
24.727207794
  0
LINE
  8
0
  6
CONTINUOUS
 62
     1
 10
75.685050506
 20
25.141421356
 11
76.175
 21
24.651471863
  0
LINE
  8
0
  6
CONTINUOUS
 62
     1
 10
82.326471863
 20
18.5
 11
82.816421356
 21
18.010050506
  0
LINE
  8
0
  6
CONTINUOUS
 62
     1
 10
83.137404844
 20
18.113331087
 11
82.745710678
 21
18.505025253
  0
LINE
  8
0
  6
CONTINUOUS
 62
     1
 10
76.180025253
 20
25.070710678
 11
75.788331087
 21
25.462404844
  0
LINE
  8
0
  6
CONTINUOUS
 62
     1
 10
75.967893219
 20
25.707106781
 11
76.321446609
 21
25.353553391
  0
LINE
  8
0
  6
CONTINUOUS
 62
     1
 10
83.028553391
 20
18.646446609
 11
83.382106781
 21
18.292893219
  0
LINE
  8
0
  6
CONTINUOUS
 62
     1
 10
83.561668913
 20
18.537595156
 11
83.169974747
 21
18.929289322
  0
LINE
  8
0
  6
CONTINUOUS
 62
     1
 10
76.604289322
 20
25.494974747
 11
76.212595156
 21
25.886668913
  0
LINE
  8
0
  6
CONTINUOUS
 62
     1
 10
76.533578644
 20
25.989949494
 11
77.023528137
 21
25.5
  0
LINE
  8
0
  6
CONTINUOUS
 62
     1
 10
83.175
 20
19.348528137
 11
83.664949494
 21
18.858578644
  0
LINE
  8
0
  6
CONTINUOUS
 62
     1
 10
83.675
 20
19.272792206
 11
83.175
 21
19.772792206
  0
LINE
  8
0
  6
CONTINUOUS
 62
     1
 10
77.447792206
 20
25.5
 11
76.947792206
 21
26.0
  0
LINE
  8
0
  6
CONTINUOUS
 62
     1
 10
77.372056275
 20
26.0
 11
77.872056275
 21
25.5
  0
LINE
  8
0
  6
CONTINUOUS
 62
     1
 10
83.175
 20
20.197056275
 11
83.675
 21
19.697056275
  0
LINE
  8
0
  6
CONTINUOUS
 62
     1
 10
83.675
 20
20.121320344
 11
83.175
 21
20.621320344
  0
LINE
  8
0
  6
CONTINUOUS
 62
     1
 10
78.296320344
 20
25.5
 11
77.796320344
 21
26.0
  0
LINE
  8
0
  6
CONTINUOUS
 62
     1
 10
78.220584412
 20
26.0
 11
78.720584412
 21
25.5
  0
LINE
  8
0
  6
CONTINUOUS
 62
     1
 10
83.175
 20
21.045584412
 11
83.675
 21
20.545584412
  0
LINE
  8
0
  6
CONTINUOUS
 62
     1
 10
83.675
 20
20.969848481
 11
83.175
 21
21.469848481
  0
LINE
  8
0
  6
CONTINUOUS
 62
     1
 10
79.144848481
 20
25.5
 11
78.644848481
 21
26.0
  0
LINE
  8
0
  6
CONTINUOUS
 62
     1
 10
79.06911255
 20
26.0
 11
79.56911255
 21
25.5
  0
LINE
  8
0
  6
CONTINUOUS
 62
     1
 10
83.175
 20
21.89411255
 11
83.675
 21
21.39411255
  0
LINE
  8
0
  6
CONTINUOUS
 62
     1
 10
83.675
 20
21.818376618
 11
83.175
 21
22.318376618
  0
LINE
  8
0
  6
CONTINUOUS
 62
     1
 10
79.993376618
 20
25.5
 11
79.493376618
 21
26.0
  0
LINE
  8
0
  6
CONTINUOUS
 62
     1
 10
79.917640687
 20
26.0
 11
80.417640687
 21
25.5
  0
LINE
  8
0
  6
CONTINUOUS
 62
     1
 10
83.175
 20
22.742640687
 11
83.675
 21
22.242640687
  0
LINE
  8
0
  6
CONTINUOUS
 62
     1
 10
83.675
 20
22.666904756
 11
83.175
 21
23.166904756
  0
LINE
  8
0
  6
CONTINUOUS
 62
     1
 10
80.841904756
 20
25.5
 11
80.341904756
 21
26.0
  0
LINE
  8
0
  6
CONTINUOUS
 62
     1
 10
80.766168825
 20
26.0
 11
81.266168825
 21
25.5
  0
LINE
  8
0
  6
CONTINUOUS
 62
     1
 10
83.175
 20
23.591168825
 11
83.675
 21
23.091168825
  0
LINE
  8
0
  6
CONTINUOUS
 62
     1
 10
83.675
 20
23.515432893
 11
83.175
 21
24.015432893
  0
LINE
  8
0
  6
CONTINUOUS
 62
     1
 10
81.690432893
 20
25.5
 11
81.190432893
 21
26.0
  0
LINE
  8
0
  6
CONTINUOUS
 62
     1
 10
81.614696962
 20
26.0
 11
82.114696962
 21
25.5
  0
LINE
  8
0
  6
CONTINUOUS
 62
     1
 10
83.175
 20
24.439696962
 11
83.675
 21
23.939696962
  0
LINE
  8
0
  6
CONTINUOUS
 62
     1
 10
83.675
 20
24.363961031
 11
83.175
 21
24.863961031
  0
LINE
  8
0
  6
CONTINUOUS
 62
     1
 10
82.538961031
 20
25.5
 11
82.038961031
 21
26.0
  0
LINE
  8
0
  6
CONTINUOUS
 62
     1
 10
82.463225099
 20
26.0
 11
83.675
 21
24.788225099
  0
LINE
  8
0
  6
CONTINUOUS
 62
     1
 10
83.64520544
 20
25.242283729
 11
82.917283729
 21
25.97020544
  0
LINE
  8
0
  6
CONTINUOUS
 62
     1
 10
78.319293356
 20
23.189877768
 11
78.175
 21
23.045584412
  0
LINE
  8
0
  6
CONTINUOUS
 62
     1
 10
78.175
 20
22.7627417
 11
78.518947035
 21
23.106688735
  0
LINE
  8
0
  6
CONTINUOUS
 62
     1
 10
78.718600715
 20
23.023499702
 11
78.175
 21
22.479898987
  0
LINE
  8
0
  6
CONTINUOUS
 62
     1
 10
78.175
 20
22.197056275
 11
78.918254394
 21
22.940310669
  0
LINE
  8
0
  6
CONTINUOUS
 62
     1
 10
79.117908074
 20
22.857121636
 11
78.175
 21
21.914213562
  0
LINE
  8
0
  6
CONTINUOUS
 62
     1
 10
78.175
 20
21.63137085
 11
79.317561753
 21
22.773932603
  0
LINE
  8
0
  6
CONTINUOUS
 62
     1
 10
79.517215432
 20
22.69074357
 11
78.175
 21
21.348528137
  0
LINE
  8
0
  6
CONTINUOUS
 62
     1
 10
78.175
 20
21.065685425
 11
79.716869112
 21
22.607554537
  0
LINE
  8
0
  6
CONTINUOUS
 62
     1
 10
79.916522791
 20
22.524365504
 11
78.175
 21
20.782842712
  0
LINE
  8
0
  6
CONTINUOUS
 62
     1
 10
78.603571429
 20
20.928571429
 11
80.116176471
 21
22.441176471
  0
LINE
  8
0
  6
CONTINUOUS
 62
     1
 10
80.31583015
 20
22.357987438
 11
79.08844465
 21
21.130601937
  0
LINE
  8
0
  6
CONTINUOUS
 62
     1
 10
79.573317871
 20
21.332632446
 11
80.515483829
 21
22.274798404
  0
LINE
  8
0
  6
CONTINUOUS
 62
     1
 10
80.715137509
 20
22.191609371
 11
80.058191093
 21
21.534662955
  0
LINE
  8
0
  6
CONTINUOUS
 62
     1
 10
80.543064314
 20
21.736693464
 11
80.914791188
 21
22.108420338
  0
LINE
  8
0
  6
CONTINUOUS
 62
     1
 10
81.114444868
 20
22.025231305
 11
81.027937535
 21
21.938723973
  0
LINE
  8
0
  6
CONTINUOUS
 62
     1
 10
78.175
 20
20.954415588
 11
78.319293356
 21
20.810122232
  0
LINE
  8
0
  6
CONTINUOUS
 62
     1
 10
78.518947035
 20
20.893311265
 11
78.175
 21
21.2372583
  0
LINE
  8
0
  6
CONTINUOUS
 62
     1
 10
78.175
 20
21.520101013
 11
78.718600715
 21
20.976500298
  0
LINE
  8
0
  6
CONTINUOUS
 62
     1
 10
78.918254394
 20
21.059689331
 11
78.175
 21
21.802943725
  0
LINE
  8
0
  6
CONTINUOUS
 62
     1
 10
78.175
 20
22.085786438
 11
79.117908074
 21
21.142878364
  0
LINE
  8
0
  6
CONTINUOUS
 62
     1
 10
79.317561753
 20
21.226067397
 11
78.175
 21
22.36862915
  0
LINE
  8
0
  6
CONTINUOUS
 62
     1
 10
78.175
 20
22.651471863
 11
79.517215432
 21
21.30925643
  0
LINE
  8
0
  6
CONTINUOUS
 62
     1
 10
79.716869112
 20
21.392445463
 11
78.175
 21
22.934314575
  0
LINE
  8
0
  6
CONTINUOUS
 62
     1
 10
78.175
 20
23.217157288
 11
79.916522791
 21
21.475634496
  0
LINE
  8
0
  6
CONTINUOUS
 62
     1
 10
80.116176471
 20
21.558823529
 11
78.603571429
 21
23.071428571
  0
LINE
  8
0
  6
CONTINUOUS
 62
     1
 10
79.08844465
 20
22.869398063
 11
80.31583015
 21
21.642012562
  0
LINE
  8
0
  6
CONTINUOUS
 62
     1
 10
80.515483829
 20
21.725201596
 11
79.573317871
 21
22.667367554
  0
LINE
  8
0
  6
CONTINUOUS
 62
     1
 10
80.058191093
 20
22.465337045
 11
80.715137509
 21
21.808390629
  0
LINE
  8
0
  6
CONTINUOUS
 62
     1
 10
80.914791188
 20
21.891579662
 11
80.543064314
 21
22.263306536
  0
LINE
  8
0
  6
CONTINUOUS
 62
     1
 10
81.027937535
 20
22.061276027
 11
81.114444868
 21
21.974768695
  0
LINE
  8
0
  6
CONTINUOUS
 62
     3
 10
88.425
 20
20.5
 11
90.925
 21
20.5
  0
LINE
  8
0
  6
CONTINUOUS
 62
     1
 10
88.485122232
 20
20.644293356
 11
88.629415588
 21
20.5
  0
LINE
  8
0
  6
CONTINUOUS
 62
     1
 10
88.9122583
 20
20.5
 11
88.568311265
 21
20.843947035
  0
LINE
  8
0
  6
CONTINUOUS
 62
     1
 10
88.651500298
 20
21.043600715
 11
89.195101013
 21
20.5
  0
LINE
  8
0
  6
CONTINUOUS
 62
     1
 10
89.477943725
 20
20.5
 11
88.734689331
 21
21.243254394
  0
LINE
  8
0
  6
CONTINUOUS
 62
     1
 10
88.817878364
 20
21.442908074
 11
89.760786438
 21
20.5
  0
LINE
  8
0
  6
CONTINUOUS
 62
     1
 10
90.04362915
 20
20.5
 11
88.901067397
 21
21.642561753
  0
LINE
  8
0
  6
CONTINUOUS
 62
     1
 10
88.98425643
 20
21.842215432
 11
90.326471863
 21
20.5
  0
LINE
  8
0
  6
CONTINUOUS
 62
     1
 10
90.609314575
 20
20.5
 11
89.067445463
 21
22.041869112
  0
LINE
  8
0
  6
CONTINUOUS
 62
     1
 10
89.150634496
 20
22.241522791
 11
90.892157288
 21
20.5
  0
LINE
  8
0
  6
CONTINUOUS
 62
     1
 10
90.746428571
 20
20.928571429
 11
89.233823529
 21
22.441176471
  0
LINE
  8
0
  6
CONTINUOUS
 62
     1
 10
89.317012563
 20
22.64083015
 11
90.544398063
 21
21.41344465
  0
LINE
  8
0
  6
CONTINUOUS
 62
     1
 10
90.342367554
 20
21.898317871
 11
89.400201596
 21
22.840483829
  0
LINE
  8
0
  6
CONTINUOUS
 62
     1
 10
89.483390629
 20
23.040137509
 11
90.140337045
 21
22.383191093
  0
LINE
  8
0
  6
CONTINUOUS
 62
     1
 10
89.938306536
 20
22.868064314
 11
89.566579662
 21
23.239791188
  0
LINE
  8
0
  6
CONTINUOUS
 62
     1
 10
89.649768695
 20
23.439444868
 11
89.736276027
 21
23.352937536
  0
LINE
  8
0
  6
CONTINUOUS
 62
     1
 10
90.720584412
 20
20.5
 11
90.864877768
 21
20.644293356
  0
LINE
  8
0
  6
CONTINUOUS
 62
     1
 10
90.781688735
 20
20.843947035
 11
90.4377417
 21
20.5
  0
LINE
  8
0
  6
CONTINUOUS
 62
     1
 10
90.154898987
 20
20.5
 11
90.698499702
 21
21.043600715
  0
LINE
  8
0
  6
CONTINUOUS
 62
     1
 10
90.615310669
 20
21.243254394
 11
89.872056275
 21
20.5
  0
LINE
  8
0
  6
CONTINUOUS
 62
     1
 10
89.589213562
 20
20.5
 11
90.532121636
 21
21.442908074
  0
LINE
  8
0
  6
CONTINUOUS
 62
     1
 10
90.448932603
 20
21.642561753
 11
89.30637085
 21
20.5
  0
LINE
  8
0
  6
CONTINUOUS
 62
     1
 10
89.023528137
 20
20.5
 11
90.36574357
 21
21.842215432
  0
LINE
  8
0
  6
CONTINUOUS
 62
     1
 10
90.282554537
 20
22.041869112
 11
88.740685425
 21
20.5
  0
LINE
  8
0
  6
CONTINUOUS
 62
     1
 10
88.457842712
 20
20.5
 11
90.199365504
 21
22.241522791
  0
LINE
  8
0
  6
CONTINUOUS
 62
     1
 10
90.116176471
 20
22.441176471
 11
88.603571429
 21
20.928571429
  0
LINE
  8
0
  6
CONTINUOUS
 62
     1
 10
88.805601938
 20
21.41344465
 11
90.032987438
 21
22.64083015
  0
LINE
  8
0
  6
CONTINUOUS
 62
     1
 10
89.949798404
 20
22.840483829
 11
89.007632446
 21
21.898317871
  0
LINE
  8
0
  6
CONTINUOUS
 62
     1
 10
89.209662955
 20
22.383191093
 11
89.866609371
 21
23.040137509
  0
LINE
  8
0
  6
CONTINUOUS
 62
     1
 10
89.783420338
 20
23.239791188
 11
89.411693464
 21
22.868064314
  0
LINE
  8
0
  6
CONTINUOUS
 62
     1
 10
89.613723973
 20
23.352937536
 11
89.700231305
 21
23.439444868
  0
LINE
  8
0
  6
CONTINUOUS
 62
     1
 10
85.734160067
 20
25.338851326
 11
86.336148674
 21
25.940839933
  0
LINE
  8
0
  6
CONTINUOUS
 62
     1
 10
86.81957281
 20
26.0
 11
85.675
 21
24.85542719
  0
LINE
  8
0
  6
CONTINUOUS
 62
     1
 10
85.675
 20
24.431163121
 11
86.175
 21
24.931163121
  0
LINE
  8
0
  6
CONTINUOUS
 62
     1
 10
86.743836879
 20
25.5
 11
87.243836879
 21
26.0
  0
LINE
  8
0
  6
CONTINUOUS
 62
     1
 10
87.668100947
 20
26.0
 11
87.168100947
 21
25.5
  0
LINE
  8
0
  6
CONTINUOUS
 62
     1
 10
86.175
 20
24.506899053
 11
85.675
 21
24.006899053
  0
LINE
  8
0
  6
CONTINUOUS
 62
     1
 10
85.675
 20
23.582634984
 11
86.175
 21
24.082634984
  0
LINE
  8
0
  6
CONTINUOUS
 62
     1
 10
87.592365016
 20
25.5
 11
88.092365016
 21
26.0
  0
LINE
  8
0
  6
CONTINUOUS
 62
     1
 10
88.516629085
 20
26.0
 11
88.016629085
 21
25.5
  0
LINE
  8
0
  6
CONTINUOUS
 62
     1
 10
86.175
 20
23.658370915
 11
85.675
 21
23.158370915
  0
LINE
  8
0
  6
CONTINUOUS
 62
     1
 10
85.675
 20
22.734106846
 11
86.175
 21
23.234106846
  0
LINE
  8
0
  6
CONTINUOUS
 62
     1
 10
88.440893154
 20
25.5
 11
88.940893154
 21
26.0
  0
LINE
  8
0
  6
CONTINUOUS
 62
     1
 10
89.365157222
 20
26.0
 11
88.865157222
 21
25.5
  0
LINE
  8
0
  6
CONTINUOUS
 62
     1
 10
86.175
 20
22.809842778
 11
85.675
 21
22.309842778
  0
LINE
  8
0
  6
CONTINUOUS
 62
     1
 10
85.675
 20
21.885578709
 11
86.175
 21
22.385578709
  0
LINE
  8
0
  6
CONTINUOUS
 62
     1
 10
89.289421291
 20
25.5
 11
89.789421291
 21
26.0
  0
LINE
  8
0
  6
CONTINUOUS
 62
     1
 10
90.21368536
 20
26.0
 11
89.71368536
 21
25.5
  0
LINE
  8
0
  6
CONTINUOUS
 62
     1
 10
86.175
 20
21.96131464
 11
85.675
 21
21.46131464
  0
LINE
  8
0
  6
CONTINUOUS
 62
     1
 10
85.675
 20
21.037050572
 11
86.175
 21
21.537050572
  0
LINE
  8
0
  6
CONTINUOUS
 62
     1
 10
90.137949428
 20
25.5
 11
90.637949428
 21
26.0
  0
LINE
  8
0
  6
CONTINUOUS
 62
     1
 10
91.062213497
 20
26.0
 11
90.562213497
 21
25.5
  0
LINE
  8
0
  6
CONTINUOUS
 62
     1
 10
86.175
 20
21.112786503
 11
85.675
 21
20.612786503
  0
LINE
  8
0
  6
CONTINUOUS
 62
     1
 10
85.675
 20
20.188522434
 11
86.175
 21
20.688522434
  0
LINE
  8
0
  6
CONTINUOUS
 62
     1
 10
90.986477566
 20
25.5
 11
91.486477566
 21
26.0
  0
LINE
  8
0
  6
CONTINUOUS
 62
     1
 10
91.910741635
 20
26.0
 11
91.410741635
 21
25.5
  0
LINE
  8
0
  6
CONTINUOUS
 62
     1
 10
86.175
 20
20.264258365
 11
85.675
 21
19.764258365
  0
LINE
  8
0
  6
CONTINUOUS
 62
     1
 10
85.675
 20
19.339994297
 11
86.175
 21
19.839994297
  0
LINE
  8
0
  6
CONTINUOUS
 62
     1
 10
91.835005703
 20
25.5
 11
92.335005703
 21
26.0
  0
LINE
  8
0
  6
CONTINUOUS
 62
     1
 10
92.759269772
 20
26.0
 11
92.259269772
 21
25.5
  0
LINE
  8
0
  6
CONTINUOUS
 62
     1
 10
86.175
 20
19.415730228
 11
85.678284687
 21
18.919014915
  0
LINE
  8
0
  6
CONTINUOUS
 62
     1
 10
85.766232039
 20
18.582698199
 11
86.175071614
 21
18.991537774
  0
LINE
  8
0
  6
CONTINUOUS
 62
     1
 10
92.683533841
 20
25.5
 11
93.183533841
 21
26.0
  0
LINE
  8
0
  6
CONTINUOUS
 62
     1
 10
86.289445876
 20
18.681647966
 11
85.93509097
 21
18.32729306
  0
LINE
  8
0
  6
CONTINUOUS
 62
     1
 10
86.169333148
 20
18.13727117
 11
86.548364336
 21
18.516302358
  0
LINE
  8
0
  6
CONTINUOUS
 62
     1
 10
86.956326047
 20
18.5
 11
86.476271471
 21
18.019945424
  0
LINE
  8
0
  6
CONTINUOUS
 62
     1
 10
86.880590116
 20
18.0
 11
87.380590116
 21
18.5
  0
LINE
  8
0
  6
CONTINUOUS
 62
     1
 10
93.937095787
 20
25.056505672
 11
94.290730574
 21
25.410140459
  0
LINE
  8
0
  6
CONTINUOUS
 62
     1
 10
94.507414798
 20
25.202560614
 11
94.153780011
 21
24.848925827
  0
LINE
  8
0
  6
CONTINUOUS
 62
     1
 10
87.804854184
 20
18.5
 11
87.304854184
 21
18.0
  0
LINE
  8
0
  6
CONTINUOUS
 62
     1
 10
87.729118253
 20
18.0
 11
88.229118253
 21
18.5
  0
LINE
  8
0
  6
CONTINUOUS
 62
     1
 10
94.370464235
 20
24.641345982
 11
94.724099022
 21
24.994980769
  0
LINE
  8
0
  6
CONTINUOUS
 62
     1
 10
94.940783246
 20
24.787400924
 11
94.587148459
 21
24.433766138
  0
LINE
  8
0
  6
CONTINUOUS
 62
     1
 10
88.653382322
 20
18.5
 11
88.153382322
 21
18.0
  0
LINE
  8
0
  6
CONTINUOUS
 62
     1
 10
88.57764639
 20
18.0
 11
89.07764639
 21
18.5
  0
LINE
  8
0
  6
CONTINUOUS
 62
     1
 10
94.803832683
 20
24.226186293
 11
95.15746747
 21
24.579821079
  0
LINE
  8
0
  6
CONTINUOUS
 62
     1
 10
95.374151694
 20
24.372241235
 11
95.020516907
 21
24.018606448
  0
LINE
  8
0
  6
CONTINUOUS
 62
     1
 10
89.501910459
 20
18.5
 11
89.001910459
 21
18.0
  0
LINE
  8
0
  6
CONTINUOUS
 62
     1
 10
89.426174528
 20
18.0
 11
89.926174528
 21
18.5
  0
LINE
  8
0
  6
CONTINUOUS
 62
     1
 10
95.237201131
 20
23.811026603
 11
95.590835918
 21
24.16466139
  0
LINE
  8
0
  6
CONTINUOUS
 62
     1
 10
95.807520142
 20
23.957081545
 11
95.453885355
 21
23.603446758
  0
LINE
  8
0
  6
CONTINUOUS
 62
     1
 10
90.350438597
 20
18.5
 11
89.850438596
 21
18.0
  0
LINE
  8
0
  6
CONTINUOUS
 62
     1
 10
90.274702665
 20
18.0
 11
90.774702665
 21
18.5
  0
LINE
  8
0
  6
CONTINUOUS
 62
     1
 10
95.670569579
 20
23.395866914
 11
96.024204365
 21
23.7495017
  0
LINE
  8
0
  6
CONTINUOUS
 62
     1
 10
96.240888589
 20
23.541921856
 11
95.887253803
 21
23.188287069
  0
LINE
  8
0
  6
CONTINUOUS
 62
     1
 10
91.198966734
 20
18.5
 11
90.698966734
 21
18.0
  0
LINE
  8
0
  6
CONTINUOUS
 62
     1
 10
91.123230803
 20
18.0
 11
91.623230803
 21
18.5
  0
LINE
  8
0
  6
CONTINUOUS
 62
     1
 10
96.103938027
 20
22.980707224
 11
96.457572813
 21
23.334342011
  0
LINE
  8
0
  6
CONTINUOUS
 62
     1
 10
96.674257037
 20
23.126762166
 11
96.320622251
 21
22.773127379
  0
LINE
  8
0
  6
CONTINUOUS
 62
     1
 10
92.047494871
 20
18.5
 11
91.547494871
 21
18.0
  0
LINE
  8
0
  6
CONTINUOUS
 62
     1
 10
91.97175894
 20
18.0
 11
92.47175894
 21
18.5
  0
LINE
  8
0
  6
CONTINUOUS
 62
     1
 10
96.537306475
 20
22.565547535
 11
96.890941261
 21
22.919182321
  0
LINE
  8
0
  6
CONTINUOUS
 62
     1
 10
97.107625485
 20
22.711602476
 11
96.753990699
 21
22.35796769
  0
LINE
  8
0
  6
CONTINUOUS
 62
     1
 10
92.896023009
 20
18.5
 11
92.396023009
 21
18.0
  0
LINE
  8
0
  6
CONTINUOUS
 62
     1
 10
92.820287077
 20
18.0
 11
93.320287077
 21
18.5
  0
LINE
  8
0
  6
CONTINUOUS
 62
     1
 10
96.970674922
 20
22.150387845
 11
97.324309709
 21
22.504022632
  0
LINE
  8
0
  6
CONTINUOUS
 62
     1
 10
97.540993933
 20
22.296442787
 11
97.187359146
 21
21.942808
  0
LINE
  8
0
  6
CONTINUOUS
 62
     1
 10
93.744551146
 20
18.5
 11
93.244551146
 21
18.0
  0
LINE
  8
0
  6
CONTINUOUS
 62
     1
 10
93.668815215
 20
18.0
 11
94.168815215
 21
18.5
  0
LINE
  8
0
  6
CONTINUOUS
 62
     1
 10
97.40404337
 20
21.735228155
 11
97.757678157
 21
22.088862942
  0
LINE
  8
0
  6
CONTINUOUS
 62
     1
 10
97.974362381
 20
21.881283097
 11
97.620727594
 21
21.527648311
  0
LINE
  8
0
  6
CONTINUOUS
 62
     1
 10
94.593079284
 20
18.5
 11
94.093079284
 21
18.0
  0
LINE
  8
0
  6
CONTINUOUS
 62
     1
 10
94.517343352
 20
18.0
 11
95.017343352
 21
18.5
  0
LINE
  8
0
  6
CONTINUOUS
 62
     1
 10
97.837411818
 20
21.320068466
 11
98.191046605
 21
21.673703253
  0
LINE
  8
0
  6
CONTINUOUS
 62
     1
 10
98.407730829
 20
21.466123408
 11
98.054096042
 21
21.112488621
  0
LINE
  8
0
  6
CONTINUOUS
 62
     1
 10
95.441607421
 20
18.5
 11
94.941607421
 21
18.0
  0
LINE
  8
0
  6
CONTINUOUS
 62
     1
 10
95.36587149
 20
18.0
 11
95.86587149
 21
18.5
  0
LINE
  8
0
  6
CONTINUOUS
 62
     1
 10
98.270780266
 20
20.904908776
 11
98.624415053
 21
21.258543563
  0
LINE
  8
0
  6
CONTINUOUS
 62
     1
 10
98.841099277
 20
21.050963718
 11
98.48746449
 21
20.697328932
  0
LINE
  8
0
  6
CONTINUOUS
 62
     1
 10
96.290135558
 20
18.5
 11
95.790135558
 21
18.0
  0
LINE
  8
0
  6
CONTINUOUS
 62
     1
 10
96.214399627
 20
18.0
 11
96.714399627
 21
18.5
  0
LINE
  8
0
  6
CONTINUOUS
 62
     1
 10
98.704148714
 20
20.489749087
 11
99.057783501
 21
20.843383873
  0
LINE
  8
0
  6
CONTINUOUS
 62
     1
 10
99.274467725
 20
20.635804029
 11
98.920832938
 21
20.282169242
  0
LINE
  8
0
  6
CONTINUOUS
 62
     1
 10
97.138663696
 20
18.5
 11
96.638663696
 21
18.0
  0
LINE
  8
0
  6
CONTINUOUS
 62
     1
 10
97.062927765
 20
18.0
 11
97.562927765
 21
18.5
  0
LINE
  8
0
  6
CONTINUOUS
 62
     1
 10
99.137517162
 20
20.074589397
 11
99.491151948
 21
20.428224184
  0
LINE
  8
0
  6
CONTINUOUS
 62
     1
 10
99.707836172
 20
20.220644339
 11
99.354201386
 21
19.867009552
  0
LINE
  8
0
  6
CONTINUOUS
 62
     1
 10
97.987191833
 20
18.5
 11
97.487191833
 21
18.0
  0
LINE
  8
0
  6
CONTINUOUS
 62
     1
 10
97.911455902
 20
18.0
 11
98.411455902
 21
18.5
  0
LINE
  8
0
  6
CONTINUOUS
 62
     1
 10
99.57088561
 20
19.659429708
 11
99.924520396
 21
20.013064494
  0
LINE
  8
0
  6
CONTINUOUS
 62
     1
 10
100.14120462
 20
19.80548465
 11
99.787569834
 21
19.451849863
  0
LINE
  8
0
  6
CONTINUOUS
 62
     1
 10
98.835719971
 20
18.5
 11
98.335719971
 21
18.0
  0
LINE
  8
0
  6
CONTINUOUS
 62
     1
 10
98.759984039
 20
18.0
 11
99.259984039
 21
18.5
  0
LINE
  8
0
  6
CONTINUOUS
 62
     1
 10
100.004254058
 20
19.244270018
 11
100.357888844
 21
19.597904805
  0
LINE
  8
0
  6
CONTINUOUS
 62
     1
 10
100.574573068
 20
19.39032496
 11
100.220938281
 21
19.036690173
  0
LINE
  8
0
  6
CONTINUOUS
 62
     1
 10
99.684248108
 20
18.5
 11
99.184248108
 21
18.0
  0
LINE
  8
0
  6
CONTINUOUS
 62
     1
 10
99.608512177
 20
18.0
 11
100.108512177
 21
18.5
  0
LINE
  8
0
  6
CONTINUOUS
 62
     1
 10
100.532776246
 20
18.5
 11
100.032776246
 21
18.0
  0
LINE
  8
0
  6
CONTINUOUS
 62
     1
 10
86.336148674
 20
18.059160067
 11
85.734160067
 21
18.661148674
  0
LINE
  8
0
  6
CONTINUOUS
 62
     1
 10
85.675
 20
19.14457281
 11
86.81957281
 21
18.0
  0
LINE
  8
0
  6
CONTINUOUS
 62
     1
 10
87.243836879
 20
18.0
 11
86.743836879
 21
18.5
  0
LINE
  8
0
  6
CONTINUOUS
 62
     1
 10
86.175
 20
19.068836879
 11
85.675
 21
19.568836879
  0
LINE
  8
0
  6
CONTINUOUS
 62
     1
 10
85.675
 20
19.993100947
 11
86.175
 21
19.493100947
  0
LINE
  8
0
  6
CONTINUOUS
 62
     1
 10
87.168100947
 20
18.5
 11
87.668100947
 21
18.0
  0
LINE
  8
0
  6
CONTINUOUS
 62
     1
 10
88.092365016
 20
18.0
 11
87.592365016
 21
18.5
  0
LINE
  8
0
  6
CONTINUOUS
 62
     1
 10
86.175
 20
19.917365016
 11
85.675
 21
20.417365016
  0
LINE
  8
0
  6
CONTINUOUS
 62
     1
 10
85.675
 20
20.841629085
 11
86.175
 21
20.341629085
  0
LINE
  8
0
  6
CONTINUOUS
 62
     1
 10
88.016629085
 20
18.5
 11
88.516629085
 21
18.0
  0
LINE
  8
0
  6
CONTINUOUS
 62
     1
 10
88.940893154
 20
18.0
 11
88.440893154
 21
18.5
  0
LINE
  8
0
  6
CONTINUOUS
 62
     1
 10
86.175
 20
20.765893154
 11
85.675
 21
21.265893154
  0
LINE
  8
0
  6
CONTINUOUS
 62
     1
 10
85.675
 20
21.690157222
 11
86.175
 21
21.190157222
  0
LINE
  8
0
  6
CONTINUOUS
 62
     1
 10
88.865157222
 20
18.5
 11
89.365157222
 21
18.0
  0
LINE
  8
0
  6
CONTINUOUS
 62
     1
 10
89.789421291
 20
18.0
 11
89.289421291
 21
18.5
  0
LINE
  8
0
  6
CONTINUOUS
 62
     1
 10
86.175
 20
21.614421291
 11
85.675
 21
22.114421291
  0
LINE
  8
0
  6
CONTINUOUS
 62
     1
 10
85.675
 20
22.53868536
 11
86.175
 21
22.03868536
  0
LINE
  8
0
  6
CONTINUOUS
 62
     1
 10
89.71368536
 20
18.5
 11
90.21368536
 21
18.0
  0
LINE
  8
0
  6
CONTINUOUS
 62
     1
 10
90.637949428
 20
18.0
 11
90.137949428
 21
18.5
  0
LINE
  8
0
  6
CONTINUOUS
 62
     1
 10
86.175
 20
22.462949428
 11
85.675
 21
22.962949428
  0
LINE
  8
0
  6
CONTINUOUS
 62
     1
 10
85.675
 20
23.387213497
 11
86.175
 21
22.887213497
  0
LINE
  8
0
  6
CONTINUOUS
 62
     1
 10
90.562213497
 20
18.5
 11
91.062213497
 21
18.0
  0
LINE
  8
0
  6
CONTINUOUS
 62
     1
 10
91.486477566
 20
18.0
 11
90.986477566
 21
18.5
  0
LINE
  8
0
  6
CONTINUOUS
 62
     1
 10
86.175
 20
23.311477566
 11
85.675
 21
23.811477566
  0
LINE
  8
0
  6
CONTINUOUS
 62
     1
 10
85.675
 20
24.235741635
 11
86.175
 21
23.735741635
  0
LINE
  8
0
  6
CONTINUOUS
 62
     1
 10
91.410741635
 20
18.5
 11
91.910741635
 21
18.0
  0
LINE
  8
0
  6
CONTINUOUS
 62
     1
 10
92.335005703
 20
18.0
 11
91.835005703
 21
18.5
  0
LINE
  8
0
  6
CONTINUOUS
 62
     1
 10
86.175
 20
24.160005703
 11
85.675
 21
24.660005703
  0
LINE
  8
0
  6
CONTINUOUS
 62
     1
 10
85.678284687
 20
25.080985085
 11
86.175
 21
24.584269772
  0
LINE
  8
0
  6
CONTINUOUS
 62
     1
 10
92.259269772
 20
18.5
 11
92.759269772
 21
18.0
  0
LINE
  8
0
  6
CONTINUOUS
 62
     1
 10
93.183533841
 20
18.0
 11
92.683533841
 21
18.5
  0
LINE
  8
0
  6
CONTINUOUS
 62
     1
 10
86.175071614
 20
25.008462226
 11
85.766232039
 21
25.417301801
  0
LINE
  8
0
  6
CONTINUOUS
 62
     1
 10
85.93509097
 20
25.67270694
 11
86.289445876
 21
25.318352034
  0
LINE
  8
0
  6
CONTINUOUS
 62
     1
 10
93.107797909
 20
18.5
 11
93.607797909
 21
18.0
  0
LINE
  8
0
  6
CONTINUOUS
 62
     1
 10
94.032061978
 20
18.0
 11
93.532061978
 21
18.5
  0
LINE
  8
0
  6
CONTINUOUS
 62
     1
 10
86.548364336
 20
25.483697642
 11
86.169333148
 21
25.86272883
  0
LINE
  8
0
  6
CONTINUOUS
 62
     1
 10
86.476271471
 20
25.980054576
 11
86.956326047
 21
25.5
  0
LINE
  8
0
  6
CONTINUOUS
 62
     1
 10
93.956326047
 20
18.5
 11
94.456326047
 21
18.0
  0
LINE
  8
0
  6
CONTINUOUS
 62
     1
 10
94.880590116
 20
18.0
 11
94.380590115
 21
18.5
  0
LINE
  8
0
  6
CONTINUOUS
 62
     1
 10
87.380590115
 20
25.5
 11
86.880590116
 21
26.0
  0
LINE
  8
0
  6
CONTINUOUS
 62
     1
 10
87.304854184
 20
26.0
 11
87.804854184
 21
25.5
  0
LINE
  8
0
  6
CONTINUOUS
 62
     1
 10
94.804854184
 20
18.5
 11
95.304854184
 21
18.0
  0
LINE
  8
0
  6
CONTINUOUS
 62
     1
 10
95.729118253
 20
18.0
 11
95.229118253
 21
18.5
  0
LINE
  8
0
  6
CONTINUOUS
 62
     1
 10
88.229118253
 20
25.5
 11
87.729118253
 21
26.0
  0
LINE
  8
0
  6
CONTINUOUS
 62
     1
 10
88.153382322
 20
26.0
 11
88.653382322
 21
25.5
  0
LINE
  8
0
  6
CONTINUOUS
 62
     1
 10
95.653382322
 20
18.5
 11
96.153382322
 21
18.0
  0
LINE
  8
0
  6
CONTINUOUS
 62
     1
 10
96.57764639
 20
18.0
 11
96.07764639
 21
18.5
  0
LINE
  8
0
  6
CONTINUOUS
 62
     1
 10
89.07764639
 20
25.5
 11
88.57764639
 21
26.0
  0
LINE
  8
0
  6
CONTINUOUS
 62
     1
 10
89.001910459
 20
26.0
 11
89.501910459
 21
25.5
  0
LINE
  8
0
  6
CONTINUOUS
 62
     1
 10
96.501910459
 20
18.5
 11
97.001910459
 21
18.0
  0
LINE
  8
0
  6
CONTINUOUS
 62
     1
 10
97.426174528
 20
18.0
 11
96.926174528
 21
18.5
  0
LINE
  8
0
  6
CONTINUOUS
 62
     1
 10
89.926174528
 20
25.5
 11
89.426174528
 21
26.0
  0
LINE
  8
0
  6
CONTINUOUS
 62
     1
 10
89.850438596
 20
26.0
 11
90.350438596
 21
25.5
  0
LINE
  8
0
  6
CONTINUOUS
 62
     1
 10
97.350438596
 20
18.5
 11
97.850438596
 21
18.0
  0
LINE
  8
0
  6
CONTINUOUS
 62
     1
 10
98.274702665
 20
18.0
 11
97.774702665
 21
18.5
  0
LINE
  8
0
  6
CONTINUOUS
 62
     1
 10
90.774702665
 20
25.5
 11
90.274702665
 21
26.0
  0
LINE
  8
0
  6
CONTINUOUS
 62
     1
 10
90.698966734
 20
26.0
 11
91.198966734
 21
25.5
  0
LINE
  8
0
  6
CONTINUOUS
 62
     1
 10
98.198966734
 20
18.5
 11
98.698966734
 21
18.0
  0
LINE
  8
0
  6
CONTINUOUS
 62
     1
 10
99.123230803
 20
18.0
 11
98.623230803
 21
18.5
  0
LINE
  8
0
  6
CONTINUOUS
 62
     1
 10
91.623230803
 20
25.5
 11
91.123230803
 21
26.0
  0
LINE
  8
0
  6
CONTINUOUS
 62
     1
 10
91.547494871
 20
26.0
 11
92.047494871
 21
25.5
  0
LINE
  8
0
  6
CONTINUOUS
 62
     1
 10
99.047494871
 20
18.5
 11
99.547494871
 21
18.0
  0
LINE
  8
0
  6
CONTINUOUS
 62
     1
 10
99.97175894
 20
18.0
 11
99.47175894
 21
18.5
  0
LINE
  8
0
  6
CONTINUOUS
 62
     1
 10
92.47175894
 20
25.5
 11
91.97175894
 21
26.0
  0
LINE
  8
0
  6
CONTINUOUS
 62
     1
 10
92.396023009
 20
26.0
 11
92.896023009
 21
25.5
  0
LINE
  8
0
  6
CONTINUOUS
 62
     1
 10
93.320287077
 20
25.5
 11
92.820287077
 21
26.0
  0
LINE
  8
0
  6
LTYPE2
 62
     1
 10
93.675
 20
19.0
 11
93.675
 21
25.0
  0
LINE
  8
0
  6
LTYPE2
 62
     1
 10
93.175
 20
19.0
 11
93.175
 21
25.0
  0
ARC
  8
0
  6
LTYPE2
 62
     1
 10
92.675
 20
19.0
 40
1.0
 50
270.0
 51
0.0
  0
ARC
  8
0
  6
LTYPE2
 62
     1
 10
92.675
 20
19.0
 40
0.5
 50
270.0
 51
0.0
  0
ARC
  8
0
  6
LTYPE2
 62
     1
 10
92.675
 20
25.0
 40
0.5
 50
0.0
 51
90.0
  0
LINE
  8
0
  6
CONTINUOUS
 62
     1
 10
86.675
 20
18.0
 11
100.03434168
 21
18.0
  0
ARC
  8
0
  6
CONTINUOUS
 62
     1
 10
100.03434168
 20
18.8
 40
0.8
 50
270.0
 51
46.229334486
  0
LINE
  8
0
  6
CONTINUOUS
 62
     1
 10
86.675
 20
18.5
 11
100.03434168
 21
18.5
  0
ARC
  8
0
  6
CONTINUOUS
 62
     1
 10
100.03434168
 20
18.8
 40
0.3
 50
270.0
 51
46.229334486
  0
LINE
  8
0
  6
CONTINUOUS
 62
     1
 10
100.814399627
 20
18.781623382
 11
100.564399627
 21
18.531623382
  0
LINE
  8
0
  6
CONTINUOUS
 62
     1
 10
100.390135558
 20
18.781623382
 11
100.791257292
 21
19.182745115
  0
LINE
  8
0
  6
CONTINUOUS
 62
     1
 10
100.588663696
 20
18.231623382
 11
100.288663696
 21
18.531623382
  0
LINE
  8
0
  6
CONTINUOUS
 62
     1
 10
100.362927765
 20
18.881623382
 11
100.762927765
 21
18.481623382
  0
LINE
  8
0
  6
CONTINUOUS
 62
     1
 10
99.896023009
 20
18.5
 11
100.314399627
 21
18.081623382
  0
ARC
  8
0
  6
LTYPE2
 62
     1
 10
92.675
 20
25.0
 40
1.0
 50
55.250957689
 51
90.0
  0
LINE
  8
0
  6
CONTINUOUS
 62
     1
 10
93.493533841
 20
25.885735931
 11
93.107797909
 21
25.5
  0
LINE
  8
0
  6
CONTINUOUS
 62
     1
 10
93.50372734
 20
25.471665361
 11
93.777797909
 21
25.745735931
  0
LINE
  8
0
  6
CONTINUOUS
 62
     1
 10
92.871599815
 20
26.0
 11
86.675
 21
26.0
  0
LINE
  8
0
  6
CONTINUOUS
 62
     1
 10
100.587760523
 20
19.377691599
 11
94.255146923
 21
25.444228999
  0
ARC
  8
0
  6
CONTINUOUS
 62
     1
 10
92.871599815
 20
24.0
 40
2.0
 50
46.229334486
 51
90.0
  0
LINE
  8
0
  6
CONTINUOUS
 62
     1
 10
100.241873746
 20
19.01663435
 11
93.764223415
 21
25.222114499
  0
LINE
  8
0
  6
CONTINUOUS
 62
     1
 10
93.072449861
 20
25.5
 11
86.675
 21
25.5
  0
ARC
  8
0
  6
CONTINUOUS
 62
     1
 10
93.072449861
 20
24.5
 40
1.0
 50
46.229334486
 51
90.0
  0
LINE
  8
0
  6
CONTINUOUS
 62
     1
 10
100.814399627
 20
18.854415588
 11
94.080875955
 21
25.58793926
  0
LINE
  8
0
  6
CONTINUOUS
 62
     1
 10
93.328815215
 20
25.915735931
 11
99.909698336
 21
19.334852811
  0
LINE
  8
0
  6
CONTINUOUS
 62
     1
 10
94.062061978
 20
25.605735931
 11
93.720411563
 21
25.264085517
  0
LINE
  8
0
  6
CONTINUOUS
 62
     4
 10
47.66
 20
1.0
 11
49.591851653
 21
0.48236191
  0
LINE
  8
0
  6
CONTINUOUS
 62
     4
 10
47.66
 20
1.0
 11
49.591851653
 21
1.51763809
  0
LINE
  8
0
  6
CONTINUOUS
 62
     4
 10
47.66
 20
1.0
 11
143.66
 21
1.0
  0
TEXT
  8
0
  6
CONTINUOUS
 62
     4
 10
93.86
 20
2.0
 30
0.0
 40
2.0
  1
９６
 50
0.0
 41
0.9
 51
0.0
  7
KANJI0
  0
LINE
  8
0
  6
CONTINUOUS
 62
     4
 10
143.66
 20
1.0
 11
141.728148347
 21
1.51763809
  0
LINE
  8
0
  6
CONTINUOUS
 62
     4
 10
143.66
 20
1.0
 11
141.728148347
 21
0.48236191
  0
LINE
  8
0
  6
CONTINUOUS
 62
     4
 10
143.66
 20
11.27
 11
143.66
 21
-0.0
  0
LINE
  8
0
  6
CONTINUOUS
 62
     4
 10
47.66
 20
6.03
 11
47.66
 21
-0.0
  0
LINE
  8
0
  6
CONTINUOUS
 62
     4
 10
47.66
 20
12.32
 11
47.66
 21
10.91
  0
LINE
  8
0
  6
CONTINUOUS
 62
     6
 10
142.675
 20
57.9
 11
48.675
 21
57.9
  0
LINE
  8
0
  6
CONTINUOUS
 62
     6
 10
115.175
 20
16.1
 11
103.275
 21
27.5
  0
LINE
  8
0
  6
CONTINUOUS
 62
     6
 10
103.275
 20
27.5
 11
48.675
 21
27.5
  0
LINE
  8
0
  6
CONTINUOUS
 62
     6
 10
142.675
 20
16.1
 11
115.175
 21
16.1
  0
LINE
  8
0
  6
CONTINUOUS
 62
     3
 10
211.375
 20
124.48
 11
211.375
 21
216.28
  0
LINE
  8
0
  6
CONTINUOUS
 62
     3
 10
211.375
 20
96.28
 11
211.375
 21
121.28
  0
LINE
  8
0
  6
CONTINUOUS
 62
     3
 10
208.375
 20
125.58
 11
208.375
 21
127.78
  0
LINE
  8
0
  6
CONTINUOUS
 62
     3
 10
208.375
 20
102.78
 11
208.375
 21
123.28
  0
LINE
  8
0
  6
CONTINUOUS
 62
     3
 10
206.625
 20
123.28
 11
206.625
 21
102.78
  0
LINE
  8
0
  6
CONTINUOUS
 62
     3
 10
206.625
 20
127.78
 11
206.625
 21
125.78
  0
LINE
  8
0
  6
CONTINUOUS
 62
     3
 10
205.375
 20
126.68
 11
205.375
 21
127.78
  0
LINE
  8
0
  6
CONTINUOUS
 62
     3
 10
205.375
 20
102.78
 11
205.375
 21
123.88
  0
LINE
  8
0
  6
CONTINUOUS
 62
     3
 10
203.625
 20
124.78
 11
203.625
 21
102.78
  0
LINE
  8
0
  6
CONTINUOUS
 62
     3
 10
203.625
 20
127.78
 11
203.625
 21
126.48
  0
LINE
  8
0
  6
CONTINUOUS
 62
     3
 10
200.125
 20
126.38
 11
200.125
 21
118.28
  0
LINE
  8
0
  6
CONTINUOUS
 62
     3
 10
200.125
 20
146.28
 11
200.125
 21
128.48
  0
LINE
  8
0
  6
CONTINUOUS
 62
     3
 10
194.375
 20
128.48
 11
194.375
 21
96.63
  0
LINE
  8
0
  6
CONTINUOUS
 62
     3
 10
194.375
 20
216.76
 11
194.375
 21
130.58
  0
LINE
  8
0
  6
CONTINUOUS
 62
     3
 10
190.875
 20
131.98
 11
190.875
 21
134.28
  0
LINE
  8
0
  6
CONTINUOUS
 62
     3
 10
190.875
 20
123.63
 11
190.875
 21
130.18
  0
LINE
  8
0
  6
CONTINUOUS
 62
     3
 10
186.875
 20
131.88
 11
186.875
 21
123.63
  0
LINE
  8
0
  6
CONTINUOUS
 62
     3
 10
186.875
 20
134.28
 11
186.875
 21
132.78
  0
LINE
  8
0
  6
CONTINUOUS
 62
     3
 10
183.375
 20
134.58
 11
183.375
 21
145.38
  0
LINE
  8
0
  6
CONTINUOUS
 62
     3
 10
183.375
 20
96.63
 11
183.375
 21
132.38
  0
LINE
  8
0
  6
CONTINUOUS
 62
     3
 10
183.375
 20
134.58
 11
183.375
 21
132.38
  0
LINE
  8
0
  6
CONTINUOUS
 62
     3
 10
186.875
 20
132.78
 11
186.875
 21
131.88
  0
LINE
  8
0
  6
CONTINUOUS
 62
     3
 10
190.875
 20
130.18
 11
190.875
 21
131.98
  0
LINE
  8
0
  6
CONTINUOUS
 62
     3
 10
200.125
 20
128.48
 11
200.125
 21
126.38
  0
LINE
  8
0
  6
CONTINUOUS
 62
     3
 10
194.375
 20
130.58
 11
194.375
 21
128.48
  0
LINE
  8
0
  6
CONTINUOUS
 62
     3
 10
206.625
 20
123.28
 11
206.625
 21
125.78
  0
LINE
  8
0
  6
CONTINUOUS
 62
     3
 10
211.375
 20
121.28
 11
211.375
 21
124.48
  0
LINE
  8
0
  6
CONTINUOUS
 62
     3
 10
208.375
 20
123.28
 11
208.375
 21
125.58
  0
LINE
  8
0
  6
CONTINUOUS
 62
     3
 10
205.375
 20
123.88
 11
205.375
 21
126.68
  0
LINE
  8
0
  6
CONTINUOUS
 62
     3
 10
203.625
 20
124.78
 11
203.625
 21
126.48
  0
ENDSEC
  0
EOF
