  0
SECTION
  2
HEADER
  9
$EXTMIN
 10
0.0
 20
0.0
 30
0.0
  9
$EXTMAX
 10
226.293103448
 20
160.021551724
 30
0.0
  9
$LIMMIN
 10
0.0
 20
0.0
  9
$LIMMAX
 10
226.293103448
 20
160.021551724
  9
$LTSCALE
 40
1.0
  9
$PDMODE
 70
     0
  0
ENDSEC
  0
SECTION
  2
TABLES
  0
TABLE
  2
LTYPE
 70
     2
  0
LTYPE
  2
CONTINUOUS
 70
    64
  3
Solid line
 72
    65
 73
     0
 40
0.0
  0
LTYPE
  2
LTYPE1
 70
    64
  3
HIDDEN
 72
    65
 73
     2
 40
2.0
 49
1.2
 49
-0.8
  0
ENDTAB
  0
TABLE
  2
LAYER
 70
   128
  0
LAYER
  2
0
 70
     0
 62
     7
  6
CONTINUOUS
  0
LAYER
  2
1
 70
     0
 62
     7
  6
CONTINUOUS
  0
LAYER
  2
2
 70
     0
 62
     7
  6
CONTINUOUS
  0
LAYER
  2
3
 70
     0
 62
     7
  6
CONTINUOUS
  0
LAYER
  2
4
 70
     0
 62
     7
  6
CONTINUOUS
  0
LAYER
  2
5
 70
     0
 62
     7
  6
CONTINUOUS
  0
LAYER
  2
6
 70
     0
 62
     7
  6
CONTINUOUS
  0
LAYER
  2
7
 70
     0
 62
     7
  6
CONTINUOUS
  0
LAYER
  2
8
 70
     0
 62
     7
  6
CONTINUOUS
  0
LAYER
  2
9
 70
     0
 62
     7
  6
CONTINUOUS
  0
LAYER
  2
10
 70
     0
 62
     7
  6
CONTINUOUS
  0
LAYER
  2
11
 70
     0
 62
     7
  6
CONTINUOUS
  0
LAYER
  2
12
 70
     0
 62
     7
  6
CONTINUOUS
  0
LAYER
  2
13
 70
     0
 62
     7
  6
CONTINUOUS
  0
LAYER
  2
14
 70
     0
 62
     7
  6
CONTINUOUS
  0
LAYER
  2
15
 70
     0
 62
     7
  6
CONTINUOUS
  0
LAYER
  2
16
 70
     0
 62
     7
  6
CONTINUOUS
  0
LAYER
  2
17
 70
     0
 62
     7
  6
CONTINUOUS
  0
LAYER
  2
18
 70
     0
 62
     7
  6
CONTINUOUS
  0
LAYER
  2
19
 70
     0
 62
     7
  6
CONTINUOUS
  0
LAYER
  2
20
 70
     0
 62
     7
  6
CONTINUOUS
  0
LAYER
  2
21
 70
     0
 62
     7
  6
CONTINUOUS
  0
LAYER
  2
22
 70
     0
 62
     7
  6
CONTINUOUS
  0
LAYER
  2
23
 70
     0
 62
     7
  6
CONTINUOUS
  0
LAYER
  2
24
 70
     0
 62
     7
  6
CONTINUOUS
  0
LAYER
  2
25
 70
     0
 62
     7
  6
CONTINUOUS
  0
LAYER
  2
26
 70
     0
 62
     7
  6
CONTINUOUS
  0
LAYER
  2
27
 70
     0
 62
     7
  6
CONTINUOUS
  0
LAYER
  2
28
 70
     0
 62
     7
  6
CONTINUOUS
  0
LAYER
  2
29
 70
     0
 62
     7
  6
CONTINUOUS
  0
LAYER
  2
30
 70
     0
 62
     7
  6
CONTINUOUS
  0
LAYER
  2
31
 70
     0
 62
     7
  6
CONTINUOUS
  0
LAYER
  2
32
 70
     0
 62
     7
  6
CONTINUOUS
  0
LAYER
  2
33
 70
     0
 62
     7
  6
CONTINUOUS
  0
LAYER
  2
34
 70
     0
 62
     7
  6
CONTINUOUS
  0
LAYER
  2
35
 70
     0
 62
     7
  6
CONTINUOUS
  0
LAYER
  2
36
 70
     0
 62
     7
  6
CONTINUOUS
  0
LAYER
  2
37
 70
     0
 62
     7
  6
CONTINUOUS
  0
LAYER
  2
38
 70
     0
 62
     7
  6
CONTINUOUS
  0
LAYER
  2
39
 70
     0
 62
     7
  6
CONTINUOUS
  0
LAYER
  2
40
 70
     0
 62
     7
  6
CONTINUOUS
  0
LAYER
  2
41
 70
     0
 62
     7
  6
CONTINUOUS
  0
LAYER
  2
42
 70
     0
 62
     7
  6
CONTINUOUS
  0
LAYER
  2
43
 70
     0
 62
     7
  6
CONTINUOUS
  0
LAYER
  2
44
 70
     0
 62
     7
  6
CONTINUOUS
  0
LAYER
  2
45
 70
     0
 62
     7
  6
CONTINUOUS
  0
LAYER
  2
46
 70
     0
 62
     7
  6
CONTINUOUS
  0
LAYER
  2
47
 70
     0
 62
     7
  6
CONTINUOUS
  0
LAYER
  2
48
 70
     0
 62
     7
  6
CONTINUOUS
  0
LAYER
  2
49
 70
     0
 62
     7
  6
CONTINUOUS
  0
LAYER
  2
50
 70
     0
 62
     7
  6
CONTINUOUS
  0
LAYER
  2
51
 70
     0
 62
     7
  6
CONTINUOUS
  0
LAYER
  2
52
 70
     0
 62
     7
  6
CONTINUOUS
  0
LAYER
  2
53
 70
     0
 62
     7
  6
CONTINUOUS
  0
LAYER
  2
54
 70
     0
 62
     7
  6
CONTINUOUS
  0
LAYER
  2
55
 70
     0
 62
     7
  6
CONTINUOUS
  0
LAYER
  2
56
 70
     0
 62
     7
  6
CONTINUOUS
  0
LAYER
  2
57
 70
     0
 62
     7
  6
CONTINUOUS
  0
LAYER
  2
58
 70
     0
 62
     7
  6
CONTINUOUS
  0
LAYER
  2
59
 70
     0
 62
     7
  6
CONTINUOUS
  0
LAYER
  2
60
 70
     0
 62
     7
  6
CONTINUOUS
  0
LAYER
  2
61
 70
     0
 62
     7
  6
CONTINUOUS
  0
LAYER
  2
62
 70
     0
 62
     7
  6
CONTINUOUS
  0
LAYER
  2
63
 70
     0
 62
     7
  6
CONTINUOUS
  0
LAYER
  2
64
 70
     0
 62
     7
  6
CONTINUOUS
  0
LAYER
  2
65
 70
     0
 62
     7
  6
CONTINUOUS
  0
LAYER
  2
66
 70
     0
 62
     7
  6
CONTINUOUS
  0
LAYER
  2
67
 70
     0
 62
     7
  6
CONTINUOUS
  0
LAYER
  2
68
 70
     0
 62
     7
  6
CONTINUOUS
  0
LAYER
  2
69
 70
     0
 62
     7
  6
CONTINUOUS
  0
LAYER
  2
70
 70
     0
 62
     7
  6
CONTINUOUS
  0
LAYER
  2
71
 70
     0
 62
     7
  6
CONTINUOUS
  0
LAYER
  2
72
 70
     0
 62
     7
  6
CONTINUOUS
  0
LAYER
  2
73
 70
     0
 62
     7
  6
CONTINUOUS
  0
LAYER
  2
74
 70
     0
 62
     7
  6
CONTINUOUS
  0
LAYER
  2
75
 70
     0
 62
     7
  6
CONTINUOUS
  0
LAYER
  2
76
 70
     0
 62
     7
  6
CONTINUOUS
  0
LAYER
  2
77
 70
     0
 62
     7
  6
CONTINUOUS
  0
LAYER
  2
78
 70
     0
 62
     7
  6
CONTINUOUS
  0
LAYER
  2
79
 70
     0
 62
     7
  6
CONTINUOUS
  0
LAYER
  2
80
 70
     0
 62
     7
  6
CONTINUOUS
  0
LAYER
  2
81
 70
     0
 62
     7
  6
CONTINUOUS
  0
LAYER
  2
82
 70
     0
 62
     7
  6
CONTINUOUS
  0
LAYER
  2
83
 70
     0
 62
     7
  6
CONTINUOUS
  0
LAYER
  2
84
 70
     0
 62
     7
  6
CONTINUOUS
  0
LAYER
  2
85
 70
     0
 62
     7
  6
CONTINUOUS
  0
LAYER
  2
86
 70
     0
 62
     7
  6
CONTINUOUS
  0
LAYER
  2
87
 70
     0
 62
     7
  6
CONTINUOUS
  0
LAYER
  2
88
 70
     0
 62
     7
  6
CONTINUOUS
  0
LAYER
  2
89
 70
     0
 62
     7
  6
CONTINUOUS
  0
LAYER
  2
90
 70
     0
 62
     7
  6
CONTINUOUS
  0
LAYER
  2
91
 70
     0
 62
     7
  6
CONTINUOUS
  0
LAYER
  2
92
 70
     0
 62
     7
  6
CONTINUOUS
  0
LAYER
  2
93
 70
     0
 62
     7
  6
CONTINUOUS
  0
LAYER
  2
94
 70
     0
 62
     7
  6
CONTINUOUS
  0
LAYER
  2
95
 70
     0
 62
     7
  6
CONTINUOUS
  0
LAYER
  2
96
 70
     0
 62
     7
  6
CONTINUOUS
  0
LAYER
  2
97
 70
     0
 62
     7
  6
CONTINUOUS
  0
LAYER
  2
98
 70
     0
 62
     7
  6
CONTINUOUS
  0
LAYER
  2
99
 70
     0
 62
     7
  6
CONTINUOUS
  0
LAYER
  2
100
 70
     0
 62
     7
  6
CONTINUOUS
  0
LAYER
  2
101
 70
     0
 62
     7
  6
CONTINUOUS
  0
LAYER
  2
102
 70
     0
 62
     7
  6
CONTINUOUS
  0
LAYER
  2
103
 70
     0
 62
     7
  6
CONTINUOUS
  0
LAYER
  2
104
 70
     0
 62
     7
  6
CONTINUOUS
  0
LAYER
  2
105
 70
     0
 62
     7
  6
CONTINUOUS
  0
LAYER
  2
106
 70
     0
 62
     7
  6
CONTINUOUS
  0
LAYER
  2
107
 70
     0
 62
     7
  6
CONTINUOUS
  0
LAYER
  2
108
 70
     0
 62
     7
  6
CONTINUOUS
  0
LAYER
  2
109
 70
     0
 62
     7
  6
CONTINUOUS
  0
LAYER
  2
110
 70
     0
 62
     7
  6
CONTINUOUS
  0
LAYER
  2
111
 70
     0
 62
     7
  6
CONTINUOUS
  0
LAYER
  2
112
 70
     0
 62
     7
  6
CONTINUOUS
  0
LAYER
  2
113
 70
     0
 62
     7
  6
CONTINUOUS
  0
LAYER
  2
114
 70
     0
 62
     7
  6
CONTINUOUS
  0
LAYER
  2
115
 70
     0
 62
     7
  6
CONTINUOUS
  0
LAYER
  2
116
 70
     0
 62
     7
  6
CONTINUOUS
  0
LAYER
  2
117
 70
     0
 62
     7
  6
CONTINUOUS
  0
LAYER
  2
118
 70
     0
 62
     7
  6
CONTINUOUS
  0
LAYER
  2
119
 70
     0
 62
     7
  6
CONTINUOUS
  0
LAYER
  2
120
 70
     0
 62
     7
  6
CONTINUOUS
  0
LAYER
  2
121
 70
     0
 62
     7
  6
CONTINUOUS
  0
LAYER
  2
122
 70
     0
 62
     7
  6
CONTINUOUS
  0
LAYER
  2
123
 70
     0
 62
     7
  6
CONTINUOUS
  0
LAYER
  2
124
 70
     0
 62
     7
  6
CONTINUOUS
  0
LAYER
  2
125
 70
     0
 62
     7
  6
CONTINUOUS
  0
LAYER
  2
126
 70
     0
 62
     7
  6
CONTINUOUS
  0
LAYER
  2
127
 70
     0
 62
     7
  6
CONTINUOUS
  0
ENDTAB
  0
TABLE
  2
STYLE
 70
     5
  0
STYLE
  2
STANDARD
 70
     0
 40
0.0
 41
1.0
 50
0.0
 71
     0
 42
0.2
  3
txt
  4

  0
STYLE
  2
KANJI0
 70
     0
 40
3.0
 41
0.8
 50
0.0
 71
     0
 42
3.0
  3

  4
bigfont
  0
STYLE
  2
KANJI1
 70
     0
 40
2.0
 41
0.85
 50
0.0
 71
     0
 42
2.0
  3

  4
bigfont
  0
STYLE
  2
KANJI2
 70
     0
 40
1.5
 41
0.866666667
 50
0.0
 71
     0
 42
1.5
  3

  4
bigfont
  0
STYLE
  2
KANJI3
 70
     0
 40
2.0
 41
0.75
 50
0.0
 71
     0
 42
2.0
  3

  4
bigfont
  0
ENDTAB
  0
TABLE
  2
VIEW
 70
     0
  0
ENDTAB
  0
ENDSEC
  0
SECTION
  2
BLOCKS
  0
ENDSEC
  0
SECTION
  2
ENTITIES
  0
LINE
  8
0
  6
CONTINUOUS
 62
     3
 10
7.451
 20
1.0
 11
9.382851653
 21
0.48236191
  0
LINE
  8
0
  6
CONTINUOUS
 62
     3
 10
7.451
 20
1.0
 11
9.382851653
 21
1.51763809
  0
LINE
  8
0
  6
CONTINUOUS
 62
     1
 10
103.451
 20
57.0
 11
7.451
 21
57.0
  0
LINE
  8
0
  6
CONTINUOUS
 62
     1
 10
7.451
 20
57.0
 11
7.451
 21
9.0
  0
LINE
  8
0
  6
CONTINUOUS
 62
     1
 10
7.451
 20
9.0
 11
103.451
 21
9.0
  0
LINE
  8
0
  6
CONTINUOUS
 62
     1
 10
103.451
 20
9.0
 11
103.451
 21
57.0
  0
LINE
  8
0
  6
CONTINUOUS
 62
     1
 10
103.451
 20
56.5
 11
7.451
 21
56.5
  0
LINE
  8
0
  6
CONTINUOUS
 62
     1
 10
7.451
 20
9.5
 11
103.451
 21
9.5
  0
LINE
  8
0
  6
CONTINUOUS
 62
     1
 10
55.451
 20
48.5
 11
10.451
 21
48.5
  0
LINE
  8
0
  6
CONTINUOUS
 62
     1
 10
55.451
 20
48.5
 11
100.451
 21
48.5
  0
LINE
  8
0
  6
CONTINUOUS
 62
     1
 10
100.451
 20
17.5
 11
10.451
 21
17.5
  0
LINE
  8
0
  6
CONTINUOUS
 62
     1
 10
10.451
 20
47.0
 11
100.451
 21
47.0
  0
LINE
  8
0
  6
CONTINUOUS
 62
     1
 10
100.451
 20
19.0
 11
10.451
 21
19.0
  0
POINT
  8
0
  6
CONTINUOUS
 62
     1
 10
10.451
 20
19.0
  0
LINE
  8
0
  6
CONTINUOUS
 62
     1
 10
100.451
 20
46.5
 11
10.451
 21
46.5
  0
LINE
  8
0
  6
CONTINUOUS
 62
     1
 10
100.451
 20
17.5
 11
100.451
 21
48.5
  0
LINE
  8
0
  6
CONTINUOUS
 62
     1
 10
10.451
 20
48.5
 11
10.451
 21
17.5
  0
LINE
  8
0
  6
CONTINUOUS
 62
     1
 10
100.451
 20
19.5
 11
10.451
 21
19.5
  0
LINE
  8
0
  6
CONTINUOUS
 62
     1
 10
6.526
 20
27.0
 11
6.526
 21
39.0
  0
LINE
  8
0
  6
CONTINUOUS
 62
     1
 10
104.416
 20
27.0
 11
104.416
 21
39.0
  0
LINE
  8
0
  6
CONTINUOUS
 62
     1
 10
104.416
 20
27.0
 11
103.451
 21
27.0
  0
LINE
  8
0
  6
CONTINUOUS
 62
     1
 10
104.416
 20
39.0
 11
103.451
 21
39.0
  0
LINE
  8
0
  6
CONTINUOUS
 62
     1
 10
6.526
 20
27.0
 11
7.451
 21
27.0
  0
LINE
  8
0
  6
CONTINUOUS
 62
     1
 10
6.526
 20
39.0
 11
7.451
 21
39.0
  0
LINE
  8
0
  6
CONTINUOUS
 62
     1
 10
79.451
 20
24.25
 11
79.451
 21
41.75
  0
LINE
  8
0
  6
CONTINUOUS
 62
     1
 10
79.451
 20
41.75
 11
31.451
 21
41.75
  0
LINE
  8
0
  6
CONTINUOUS
 62
     1
 10
31.451
 20
41.75
 11
31.451
 21
24.25
  0
LINE
  8
0
  6
CONTINUOUS
 62
     1
 10
31.451
 20
24.25
 11
79.451
 21
24.25
  0
LINE
  8
0
  6
CONTINUOUS
 62
     1
 10
60.927810933
 20
33.597681093
 11
58.846599088
 21
33.597681093
  0
LINE
  8
0
  6
CONTINUOUS
 62
     1
 10
58.756111617
 20
32.240369021
 11
63.280485192
 21
32.240369021
  0
LINE
  8
0
  6
CONTINUOUS
 62
     1
 10
63.280485192
 20
33.778656036
 11
64.456822321
 21
32.873781321
  0
LINE
  8
0
  6
CONTINUOUS
 62
     1
 10
63.18999772
 20
33.507193622
 11
64.36633485
 21
32.602318907
  0
LINE
  8
0
  6
CONTINUOUS
 62
     1
 10
64.36633485
 20
32.602318907
 11
63.099510249
 21
32.240369021
  0
LINE
  8
0
  6
CONTINUOUS
 62
     1
 10
63.099510249
 20
31.968906606
 11
64.456822321
 21
32.330856492
  0
LINE
  8
0
  6
CONTINUOUS
 62
     1
 10
58.756111617
 20
33.597681093
 11
57.579774487
 21
33.054756264
  0
LINE
  8
0
  6
CONTINUOUS
 62
     1
 10
57.579774487
 20
33.054756264
 11
58.665624145
 21
32.240369021
  0
LINE
  8
0
  6
CONTINUOUS
 62
     1
 10
58.484649202
 20
32.059394078
 11
57.308312073
 21
32.873781321
  0
LINE
  8
0
  6
CONTINUOUS
 62
     1
 10
57.398799544
 20
33.235731207
 11
58.756111617
 21
33.959630979
  0
LINE
  8
0
  6
CONTINUOUS
 62
     1
 10
63.099510249
 20
33.597681093
 11
61.018298404
 21
33.597681093
  0
POINT
  8
0
  6
CONTINUOUS
 62
     1
 10
64.094872435
 20
39.298391798
  0
LINE
  8
0
  6
CONTINUOUS
 62
     1
 10
63.823410021
 20
37.941079725
 11
64.728284736
 21
39.026929383
  0
LINE
  8
0
  6
CONTINUOUS
 62
     1
 10
65.090234622
 20
38.936441912
 11
64.004384964
 21
37.579129839
  0
LINE
  8
0
  6
CONTINUOUS
 62
     1
 10
59.57049886
 20
38.031567197
 11
58.756111617
 21
39.026929383
  0
LINE
  8
0
  6
CONTINUOUS
 62
     1
 10
59.389523917
 20
37.669617311
 11
58.484649202
 21
38.84595444
  0
LINE
  8
0
  6
CONTINUOUS
 62
     1
 10
58.809838553
 20
34.117984054
 11
59.364074316
 21
37.646995443
  0
LINE
  8
0
  6
CONTINUOUS
 62
     1
 10
58.394161731
 20
38.820100877
 11
58.213186788
 21
38.664979497
  0
LINE
  8
0
  6
CONTINUOUS
 62
     1
 10
58.846599088
 20
39.207904326
 11
58.756111617
 21
39.130343636
  0
LINE
  8
0
  6
CONTINUOUS
 62
     1
 10
57.339417141
 20
33.213109339
 11
58.119871583
 21
38.551870158
  0
LINE
  8
0
  6
CONTINUOUS
 62
     1
 10
59.660986332
 20
37.941079725
 11
63.913897492
 21
37.941079725
  0
LINE
  8
0
  6
CONTINUOUS
 62
     1
 10
63.865826023
 20
37.4660205
 11
63.288968392
 21
33.756034168
  0
LINE
  8
0
  6
CONTINUOUS
 62
     1
 10
65.180722093
 20
38.949368693
 11
65.361697036
 21
38.84595444
  0
LINE
  8
0
  6
CONTINUOUS
 62
     1
 10
64.728284736
 20
39.207904326
 11
64.818772207
 21
39.1561972
  0
LINE
  8
0
  6
CONTINUOUS
 62
     1
 10
58.93708656
 20
39.298391798
 11
64.637797264
 21
39.298391798
  0
LINE
  8
0
  6
CONTINUOUS
 62
     1
 10
65.392802104
 20
38.823332572
 11
64.533171125
 21
32.851159453
  0
POINT
  8
0
  6
CONTINUOUS
 62
     1
 10
57.76074943
 20
26.630145788
  0
LINE
  8
0
  6
CONTINUOUS
 62
     1
 10
62.466097948
 20
28.168432803
 11
63.461460135
 21
27.173070617
  0
LINE
  8
0
  6
CONTINUOUS
 62
     1
 10
62.285123005
 20
27.98745786
 11
63.280485192
 21
26.992095674
  0
LINE
  8
0
  6
CONTINUOUS
 62
     1
 10
57.941724373
 20
28.168432803
 11
56.674899772
 21
27.263558088
  0
LINE
  8
0
  6
CONTINUOUS
 62
     1
 10
56.855874715
 20
27.082583145
 11
57.941724373
 21
27.896970389
  0
LINE
  8
0
  6
CONTINUOUS
 62
     1
 10
56.505235763
 20
27.444533031
 11
57.308312073
 21
32.964268793
  0
LINE
  8
0
  6
CONTINUOUS
 62
     1
 10
56.795549734
 20
26.992095674
 11
57.036849658
 21
26.630145788
  0
LINE
  8
0
  6
CONTINUOUS
 62
     1
 10
56.493924829
 20
27.444533031
 11
56.674899772
 21
27.173070617
  0
LINE
  8
0
  6
CONTINUOUS
 62
     1
 10
62.285123005
 20
27.98745786
 11
57.941724373
 21
27.98745786
  0
LINE
  8
0
  6
CONTINUOUS
 62
     1
 10
63.461460135
 20
27.122799799
 11
63.642435078
 21
27.263558088
  0
LINE
  8
0
  6
CONTINUOUS
 62
     1
 10
62.828047834
 20
26.630145788
 11
63.280485192
 21
26.98204151
  0
LINE
  8
0
  6
CONTINUOUS
 62
     1
 10
62.828047834
 20
26.630145788
 11
56.946362187
 21
26.630145788
  0
LINE
  8
0
  6
CONTINUOUS
 62
     1
 10
64.465305521
 20
32.308234624
 11
63.718783882
 21
27.24093622
  0
LINE
  8
0
  6
CONTINUOUS
 62
     1
 10
62.963779041
 20
31.833175399
 11
62.511341684
 21
28.213676539
  0
LINE
  8
0
  6
CONTINUOUS
 62
     1
 10
57.986968109
 20
28.213676539
 11
58.439405466
 21
31.833175399
  0
LINE
  8
0
  6
CONTINUOUS
 62
     1
 10
71.881432798
 20
33.597681093
 11
69.800220953
 21
33.597681093
  0
LINE
  8
0
  6
CONTINUOUS
 62
     1
 10
69.709733482
 20
32.240369021
 11
74.234107057
 21
32.240369021
  0
LINE
  8
0
  6
CONTINUOUS
 62
     1
 10
74.234107057
 20
33.778656036
 11
75.410444186
 21
32.873781321
  0
LINE
  8
0
  6
CONTINUOUS
 62
     1
 10
74.143619585
 20
33.507193622
 11
75.319956715
 21
32.602318907
  0
LINE
  8
0
  6
CONTINUOUS
 62
     1
 10
75.319956715
 20
32.602318907
 11
74.053132114
 21
32.240369021
  0
LINE
  8
0
  6
CONTINUOUS
 62
     1
 10
74.053132114
 20
31.968906606
 11
75.410444186
 21
32.330856492
  0
LINE
  8
0
  6
CONTINUOUS
 62
     1
 10
69.709733482
 20
33.597681093
 11
68.533396352
 21
33.054756264
  0
LINE
  8
0
  6
CONTINUOUS
 62
     1
 10
68.533396352
 20
33.054756264
 11
69.61924601
 21
32.240369021
  0
LINE
  8
0
  6
CONTINUOUS
 62
     1
 10
69.438271067
 20
32.059394078
 11
68.261933938
 21
32.873781321
  0
LINE
  8
0
  6
CONTINUOUS
 62
     1
 10
68.352421409
 20
33.235731207
 11
69.709733482
 21
33.959630979
  0
LINE
  8
0
  6
CONTINUOUS
 62
     1
 10
74.053132114
 20
33.597681093
 11
71.971920269
 21
33.597681093
  0
POINT
  8
0
  6
CONTINUOUS
 62
     1
 10
75.0484943
 20
39.298391798
  0
LINE
  8
0
  6
CONTINUOUS
 62
     1
 10
76.043856487
 20
38.936441912
 11
74.958006829
 21
37.579129839
  0
LINE
  8
0
  6
CONTINUOUS
 62
     1
 10
70.343145782
 20
37.669617311
 11
69.438271067
 21
38.84595444
  0
LINE
  8
0
  6
CONTINUOUS
 62
     1
 10
69.763460418
 20
34.117984054
 11
70.317696181
 21
37.646995443
  0
LINE
  8
0
  6
CONTINUOUS
 62
     1
 10
69.347783596
 20
38.820100877
 11
69.166808653
 21
38.664979497
  0
LINE
  8
0
  6
CONTINUOUS
 62
     1
 10
69.800220953
 20
39.207904326
 11
69.709733482
 21
39.130343636
  0
LINE
  8
0
  6
CONTINUOUS
 62
     1
 10
68.293039006
 20
33.213109339
 11
69.073493448
 21
38.551870158
  0
LINE
  8
0
  6
CONTINUOUS
 62
     1
 10
74.819447888
 20
37.4660205
 11
74.242590257
 21
33.756034168
  0
LINE
  8
0
  6
CONTINUOUS
 62
     1
 10
76.134343958
 20
38.949368693
 11
76.315318901
 21
38.84595444
  0
LINE
  8
0
  6
CONTINUOUS
 62
     1
 10
69.890708425
 20
39.298391798
 11
75.591419129
 21
39.298391798
  0
LINE
  8
0
  6
CONTINUOUS
 62
     1
 10
76.346423969
 20
38.823332572
 11
75.48679299
 21
32.851159453
  0
POINT
  8
0
  6
CONTINUOUS
 62
     1
 10
68.714371295
 20
26.630145788
  0
LINE
  8
0
  6
CONTINUOUS
 62
     1
 10
73.419719813
 20
28.168432803
 11
74.415082
 21
27.173070617
  0
LINE
  8
0
  6
CONTINUOUS
 62
     1
 10
73.23874487
 20
27.98745786
 11
74.234107057
 21
26.992095674
  0
LINE
  8
0
  6
CONTINUOUS
 62
     1
 10
68.895346238
 20
28.168432803
 11
67.628521637
 21
27.263558088
  0
LINE
  8
0
  6
CONTINUOUS
 62
     1
 10
67.80949658
 20
27.082583145
 11
68.895346238
 21
27.896970389
  0
LINE
  8
0
  6
CONTINUOUS
 62
     1
 10
67.458857628
 20
27.444533031
 11
68.261933938
 21
32.964268793
  0
LINE
  8
0
  6
CONTINUOUS
 62
     1
 10
67.749171599
 20
26.992095674
 11
67.990471523
 21
26.630145788
  0
LINE
  8
0
  6
CONTINUOUS
 62
     1
 10
67.447546694
 20
27.444533031
 11
67.628521637
 21
27.173070617
  0
LINE
  8
0
  6
CONTINUOUS
 62
     1
 10
73.23874487
 20
27.98745786
 11
68.895346238
 21
27.98745786
  0
LINE
  8
0
  6
CONTINUOUS
 62
     1
 10
74.415082
 20
27.122799799
 11
74.596056943
 21
27.263558088
  0
LINE
  8
0
  6
CONTINUOUS
 62
     1
 10
73.781669699
 20
26.630145788
 11
74.234107057
 21
26.98204151
  0
LINE
  8
0
  6
CONTINUOUS
 62
     1
 10
73.781669699
 20
26.630145788
 11
67.899984052
 21
26.630145788
  0
LINE
  8
0
  6
CONTINUOUS
 62
     1
 10
75.418927386
 20
32.308234624
 11
74.672405747
 21
27.24093622
  0
LINE
  8
0
  6
CONTINUOUS
 62
     1
 10
73.917400906
 20
31.833175399
 11
73.464963549
 21
28.213676539
  0
LINE
  8
0
  6
CONTINUOUS
 62
     1
 10
69.393027331
 20
32.059394078
 11
68.940589974
 21
28.439895218
  0
LINE
  8
0
  6
CONTINUOUS
 62
     1
 10
70.614608197
 20
37.941079725
 11
74.777031886
 21
37.941079725
  0
LINE
  8
0
  6
CONTINUOUS
 62
     1
 10
70.598155929
 20
37.941079725
 11
69.709733482
 21
39.026929383
  0
LINE
  8
0
  6
CONTINUOUS
 62
     1
 10
74.777031886
 20
37.941079725
 11
75.757312827
 21
39.117416855
  0
LINE
  8
0
  6
CONTINUOUS
 62
     1
 10
75.591419129
 20
39.259611453
 11
75.772394072
 21
39.1561972
  0
LINE
  8
0
  6
CONTINUOUS
 62
     1
 10
49.974189068
 20
33.597681093
 11
47.892977223
 21
33.597681093
  0
LINE
  8
0
  6
CONTINUOUS
 62
     1
 10
47.802489752
 20
32.240369021
 11
52.326863327
 21
32.240369021
  0
LINE
  8
0
  6
CONTINUOUS
 62
     1
 10
52.326863327
 20
33.778656036
 11
53.503200456
 21
32.873781321
  0
LINE
  8
0
  6
CONTINUOUS
 62
     1
 10
52.236375855
 20
33.507193622
 11
53.412712985
 21
32.602318907
  0
LINE
  8
0
  6
CONTINUOUS
 62
     1
 10
53.412712985
 20
32.602318907
 11
52.145888384
 21
32.240369021
  0
LINE
  8
0
  6
CONTINUOUS
 62
     1
 10
52.145888384
 20
31.968906606
 11
53.503200456
 21
32.330856492
  0
LINE
  8
0
  6
CONTINUOUS
 62
     1
 10
47.802489752
 20
33.597681093
 11
46.626152622
 21
33.054756264
  0
LINE
  8
0
  6
CONTINUOUS
 62
     1
 10
46.626152622
 20
33.054756264
 11
47.71200228
 21
32.240369021
  0
LINE
  8
0
  6
CONTINUOUS
 62
     1
 10
47.531027337
 20
32.059394078
 11
46.354690208
 21
32.873781321
  0
LINE
  8
0
  6
CONTINUOUS
 62
     1
 10
46.445177679
 20
33.235731207
 11
47.802489752
 21
33.959630979
  0
LINE
  8
0
  6
CONTINUOUS
 62
     1
 10
52.145888384
 20
33.597681093
 11
50.064676539
 21
33.597681093
  0
POINT
  8
0
  6
CONTINUOUS
 62
     1
 10
53.14125057
 20
39.298391798
  0
LINE
  8
0
  6
CONTINUOUS
 62
     1
 10
52.869788156
 20
37.941079725
 11
53.774662871
 21
39.026929383
  0
LINE
  8
0
  6
CONTINUOUS
 62
     1
 10
54.136612757
 20
38.936441912
 11
53.050763099
 21
37.579129839
  0
LINE
  8
0
  6
CONTINUOUS
 62
     1
 10
48.616876995
 20
38.031567197
 11
47.802489752
 21
39.026929383
  0
LINE
  8
0
  6
CONTINUOUS
 62
     1
 10
48.435902052
 20
37.669617311
 11
47.531027337
 21
38.84595444
  0
LINE
  8
0
  6
CONTINUOUS
 62
     1
 10
47.856216688
 20
34.117984054
 11
48.410452451
 21
37.646995443
  0
LINE
  8
0
  6
CONTINUOUS
 62
     1
 10
47.440539866
 20
38.820100877
 11
47.259564923
 21
38.664979497
  0
LINE
  8
0
  6
CONTINUOUS
 62
     1
 10
47.892977223
 20
39.207904326
 11
47.802489752
 21
39.130343636
  0
LINE
  8
0
  6
CONTINUOUS
 62
     1
 10
46.385795276
 20
33.213109339
 11
47.166249718
 21
38.551870158
  0
LINE
  8
0
  6
CONTINUOUS
 62
     1
 10
48.707364467
 20
37.941079725
 11
52.960275627
 21
37.941079725
  0
LINE
  8
0
  6
CONTINUOUS
 62
     1
 10
52.912204158
 20
37.4660205
 11
52.335346527
 21
33.756034168
  0
LINE
  8
0
  6
CONTINUOUS
 62
     1
 10
54.227100228
 20
38.949368693
 11
54.408075171
 21
38.84595444
  0
LINE
  8
0
  6
CONTINUOUS
 62
     1
 10
53.774662871
 20
39.207904326
 11
53.865150342
 21
39.1561972
  0
LINE
  8
0
  6
CONTINUOUS
 62
     1
 10
47.983464695
 20
39.298391798
 11
53.684175399
 21
39.298391798
  0
LINE
  8
0
  6
CONTINUOUS
 62
     1
 10
54.439180239
 20
38.823332572
 11
53.57954926
 21
32.851159453
  0
POINT
  8
0
  6
CONTINUOUS
 62
     1
 10
46.807127565
 20
26.630145788
  0
LINE
  8
0
  6
CONTINUOUS
 62
     1
 10
51.512476083
 20
28.168432803
 11
52.50783827
 21
27.173070617
  0
LINE
  8
0
  6
CONTINUOUS
 62
     1
 10
51.33150114
 20
27.98745786
 11
52.326863327
 21
26.992095674
  0
LINE
  8
0
  6
CONTINUOUS
 62
     1
 10
46.988102508
 20
28.168432803
 11
45.721277907
 21
27.263558088
  0
LINE
  8
0
  6
CONTINUOUS
 62
     1
 10
45.90225285
 20
27.082583145
 11
46.988102508
 21
27.896970389
  0
LINE
  8
0
  6
CONTINUOUS
 62
     1
 10
45.551613898
 20
27.444533031
 11
46.354690208
 21
32.964268793
  0
LINE
  8
0
  6
CONTINUOUS
 62
     1
 10
45.841927869
 20
26.992095674
 11
46.083227793
 21
26.630145788
  0
LINE
  8
0
  6
CONTINUOUS
 62
     1
 10
45.540302964
 20
27.444533031
 11
45.721277907
 21
27.173070617
  0
LINE
  8
0
  6
CONTINUOUS
 62
     1
 10
51.33150114
 20
27.98745786
 11
46.988102508
 21
27.98745786
  0
LINE
  8
0
  6
CONTINUOUS
 62
     1
 10
52.50783827
 20
27.122799799
 11
52.688813213
 21
27.263558088
  0
LINE
  8
0
  6
CONTINUOUS
 62
     1
 10
51.874425969
 20
26.630145788
 11
52.326863327
 21
26.98204151
  0
LINE
  8
0
  6
CONTINUOUS
 62
     1
 10
51.874425969
 20
26.630145788
 11
45.992740322
 21
26.630145788
  0
LINE
  8
0
  6
CONTINUOUS
 62
     1
 10
53.511683656
 20
32.308234624
 11
52.765162017
 21
27.24093622
  0
LINE
  8
0
  6
CONTINUOUS
 62
     1
 10
47.033346244
 20
28.213676539
 11
47.485783601
 21
31.833175399
  0
LINE
  8
0
  6
CONTINUOUS
 62
     1
 10
51.557719819
 20
28.213676539
 11
52.010157176
 21
31.833175399
  0
LINE
  8
0
  6
CONTINUOUS
 62
     1
 10
7.451
 20
76.0
 11
103.451
 21
76.0
  0
LINE
  8
0
  6
CONTINUOUS
 62
     1
 10
103.451
 20
76.0
 11
103.451
 21
77.5
  0
LINE
  8
0
  6
CONTINUOUS
 62
     1
 10
103.451
 20
77.5
 11
7.451
 21
77.5
  0
LINE
  8
0
  6
CONTINUOUS
 62
     1
 10
7.451
 20
77.5
 11
7.451
 21
76.0
  0
LINE
  8
0
  6
CONTINUOUS
 62
     1
 10
7.451
 20
71.0
 11
103.451
 21
71.0
  0
LINE
  8
0
  6
CONTINUOUS
 62
     1
 10
103.451
 20
71.0
 11
103.451
 21
76.0
  0
LINE
  8
0
  6
CONTINUOUS
 62
     1
 10
103.451
 20
76.0
 11
7.451
 21
76.0
  0
LINE
  8
0
  6
CONTINUOUS
 62
     1
 10
7.451
 20
76.0
 11
7.451
 21
71.0
  0
LINE
  8
0
  6
CONTINUOUS
 62
     1
 10
103.451
 20
76.0
 11
7.451
 21
76.0
  0
LINE
  8
0
  6
CONTINUOUS
 62
     1
 10
7.451
 20
77.5
 11
103.451
 21
77.5
  0
LINE
  8
0
  6
CONTINUOUS
 62
     1
 10
7.451
 20
76.0
 11
103.451
 21
76.0
  0
LINE
  8
0
  6
CONTINUOUS
 62
     1
 10
101.376
 20
77.5
 11
101.376
 21
86.2125
  0
LINE
  8
0
  6
CONTINUOUS
 62
     1
 10
9.651
 20
89.5
 11
9.526
 21
77.5
  0
LINE
  8
0
  6
CONTINUOUS
 62
     1
 10
101.251
 20
89.5
 11
101.376
 21
77.5
  0
LINE
  8
0
  6
CONTINUOUS
 62
     1
 10
101.251
 20
89.5
 11
9.651
 21
89.5
  0
ARC
  8
0
  6
CONTINUOUS
 62
     1
 10
-4.908534641
 20
92.508316927
 40
15.0
 50
319.667586953
 51
346.080732555
  0
LINE
  8
0
  6
CONTINUOUS
 62
     1
 10
8.726
 20
78.0
 11
8.326
 21
78.0
  0
LINE
  8
0
  6
CONTINUOUS
 62
     1
 10
8.326
 20
78.0
 11
8.326
 21
78.3
  0
LINE
  8
0
  6
CONTINUOUS
 62
     1
 10
8.326
 20
78.3
 11
8.126
 21
78.3
  0
LINE
  8
0
  6
CONTINUOUS
 62
     1
 10
8.126
 20
78.3
 11
8.126
 21
78.8
  0
LINE
  8
0
  6
CONTINUOUS
 62
     1
 10
8.126
 20
78.8
 11
7.926
 21
78.8
  0
LINE
  8
0
  6
CONTINUOUS
 62
     1
 10
7.926
 20
78.8
 11
7.926
 21
79.3
  0
LINE
  8
0
  6
CONTINUOUS
 62
     1
 10
7.926
 20
79.3
 11
7.726
 21
79.3
  0
LINE
  8
0
  6
CONTINUOUS
 62
     1
 10
7.726
 20
79.3
 11
7.726
 21
79.8
  0
LINE
  8
0
  6
CONTINUOUS
 62
     1
 10
7.726
 20
79.8
 11
7.526
 21
79.8
  0
LINE
  8
0
  6
CONTINUOUS
 62
     1
 10
7.526
 20
79.8
 11
7.526
 21
80.3
  0
LINE
  8
0
  6
CONTINUOUS
 62
     1
 10
7.526
 20
80.3
 11
7.326
 21
80.3
  0
LINE
  8
0
  6
CONTINUOUS
 62
     1
 10
7.326
 20
80.3
 11
7.326
 21
80.8
  0
LINE
  8
0
  6
CONTINUOUS
 62
     1
 10
7.326
 20
80.8
 11
7.126
 21
80.8
  0
LINE
  8
0
  6
CONTINUOUS
 62
     1
 10
7.126
 20
80.8
 11
7.126
 21
81.3
  0
LINE
  8
0
  6
CONTINUOUS
 62
     1
 10
7.126
 20
81.3
 11
6.926
 21
81.3
  0
LINE
  8
0
  6
CONTINUOUS
 62
     1
 10
6.926
 20
81.3
 11
6.926
 21
81.8
  0
LINE
  8
0
  6
CONTINUOUS
 62
     1
 10
6.926
 20
81.8
 11
6.726
 21
81.8
  0
LINE
  8
0
  6
CONTINUOUS
 62
     1
 10
6.726
 20
81.8
 11
6.726
 21
82.3
  0
LINE
  8
0
  6
CONTINUOUS
 62
     1
 10
6.726
 20
82.3
 11
6.526
 21
82.3
  0
LINE
  8
0
  6
CONTINUOUS
 62
     1
 10
6.526
 20
82.3
 11
6.526
 21
82.8
  0
LINE
  8
0
  6
CONTINUOUS
 62
     1
 10
9.560375
 20
80.8
 11
8.726
 21
78.0
  0
LINE
  8
0
  6
CONTINUOUS
 62
     1
 10
8.360375
 20
82.8
 11
9.560375
 21
80.8
  0
ARC
  8
0
  6
CONTINUOUS
 62
     1
 10
-4.121034357
 20
91.119520446
 40
15.0
 50
326.314442736
 51
336.214113149
  0
ARC
  8
0
  6
CONTINUOUS
 62
     1
 10
115.810534641
 20
92.508316927
 40
15.0
 50
193.919267445
 51
220.332413047
  0
LINE
  8
0
  6
CONTINUOUS
 62
     1
 10
102.176
 20
78.0
 11
102.576
 21
78.0
  0
LINE
  8
0
  6
CONTINUOUS
 62
     1
 10
102.576
 20
78.0
 11
102.576
 21
78.3
  0
LINE
  8
0
  6
CONTINUOUS
 62
     1
 10
102.576
 20
78.3
 11
102.776
 21
78.3
  0
LINE
  8
0
  6
CONTINUOUS
 62
     1
 10
102.776
 20
78.3
 11
102.776
 21
78.8
  0
LINE
  8
0
  6
CONTINUOUS
 62
     1
 10
102.776
 20
78.8
 11
102.976
 21
78.8
  0
LINE
  8
0
  6
CONTINUOUS
 62
     1
 10
102.976
 20
78.8
 11
102.976
 21
79.3
  0
LINE
  8
0
  6
CONTINUOUS
 62
     1
 10
102.976
 20
79.3
 11
103.176
 21
79.3
  0
LINE
  8
0
  6
CONTINUOUS
 62
     1
 10
103.176
 20
79.3
 11
103.176
 21
79.8
  0
LINE
  8
0
  6
CONTINUOUS
 62
     1
 10
103.176
 20
79.8
 11
103.376
 21
79.8
  0
LINE
  8
0
  6
CONTINUOUS
 62
     1
 10
103.376
 20
79.8
 11
103.376
 21
80.3
  0
LINE
  8
0
  6
CONTINUOUS
 62
     1
 10
103.376
 20
80.3
 11
103.576
 21
80.3
  0
LINE
  8
0
  6
CONTINUOUS
 62
     1
 10
103.576
 20
80.3
 11
103.576
 21
80.8
  0
LINE
  8
0
  6
CONTINUOUS
 62
     1
 10
103.576
 20
80.8
 11
103.776
 21
80.8
  0
LINE
  8
0
  6
CONTINUOUS
 62
     1
 10
103.776
 20
80.8
 11
103.776
 21
81.3
  0
LINE
  8
0
  6
CONTINUOUS
 62
     1
 10
103.776
 20
81.3
 11
103.976
 21
81.3
  0
LINE
  8
0
  6
CONTINUOUS
 62
     1
 10
103.976
 20
81.3
 11
103.976
 21
81.8
  0
LINE
  8
0
  6
CONTINUOUS
 62
     1
 10
103.976
 20
81.8
 11
104.176
 21
81.8
  0
LINE
  8
0
  6
CONTINUOUS
 62
     1
 10
104.176
 20
81.8
 11
104.176
 21
82.3
  0
LINE
  8
0
  6
CONTINUOUS
 62
     1
 10
104.176
 20
82.3
 11
104.376
 21
82.3
  0
LINE
  8
0
  6
CONTINUOUS
 62
     1
 10
104.376
 20
82.3
 11
104.376
 21
82.8
  0
LINE
  8
0
  6
CONTINUOUS
 62
     1
 10
101.341625
 20
80.8
 11
102.176
 21
78.0
  0
LINE
  8
0
  6
CONTINUOUS
 62
     1
 10
102.541625
 20
82.8
 11
101.341625
 21
80.8
  0
ARC
  8
0
  6
CONTINUOUS
 62
     1
 10
115.023034357
 20
91.119520446
 40
15.0
 50
203.785886851
 51
213.685557264
  0
LINE
  8
0
  6
CONTINUOUS
 62
     1
 10
75.951
 20
95.5
 11
75.951
 21
89.5
  0
LINE
  8
0
  6
CONTINUOUS
 62
     1
 10
34.951
 20
95.5
 11
34.951
 21
89.5
  0
LINE
  8
0
  6
CONTINUOUS
 62
     1
 10
74.951
 20
96.5
 11
35.951
 21
96.5
  0
LINE
  8
0
  6
CONTINUOUS
 62
     1
 10
34.951
 20
95.5
 11
35.951
 21
96.5
  0
LINE
  8
0
  6
CONTINUOUS
 62
     1
 10
75.951
 20
95.5
 11
74.951
 21
96.5
  0
LINE
  8
0
  6
CONTINUOUS
 62
     1
 10
103.451
 20
160.0
 11
7.451
 21
160.0
  0
LINE
  8
0
  6
CONTINUOUS
 62
     1
 10
7.451
 20
112.0
 11
103.451
 21
112.0
  0
LINE
  8
0
  6
CONTINUOUS
 62
     1
 10
104.416
 20
130.0
 11
104.416
 21
142.0
  0
ARC
  8
0
  6
CONTINUOUS
 62
     1
 10
100.651
 20
157.75
 40
0.6
 50
0.0
 51
90.0
  0
ARC
  8
0
  6
CONTINUOUS
 62
     1
 10
100.651
 20
114.25
 40
0.6
 50
270.0
 51
0.0
  0
LINE
  8
0
  6
CONTINUOUS
 62
     1
 10
10.251
 20
113.65
 11
100.651
 21
113.65
  0
ARC
  8
0
  6
CONTINUOUS
 62
     1
 10
10.251
 20
114.25
 40
0.6
 50
180.000000001
 51
270.0
  0
LINE
  8
0
  6
CONTINUOUS
 62
     1
 10
10.251
 20
158.35
 11
100.651
 21
158.35
  0
ARC
  8
0
  6
CONTINUOUS
 62
     1
 10
10.251
 20
157.75
 40
0.6
 50
90.0
 51
180.000000001
  0
LINE
  8
0
  6
CONTINUOUS
 62
     1
 10
98.751
 20
143.0
 11
98.751
 21
129.0
  0
LINE
  8
0
  6
CONTINUOUS
 62
     1
 10
101.251
 20
143.0
 11
98.751
 21
143.0
  0
LINE
  8
0
  6
CONTINUOUS
 62
     1
 10
101.251
 20
129.0
 11
98.751
 21
129.0
  0
LINE
  8
0
  6
CONTINUOUS
 62
     1
 10
104.416
 20
142.0
 11
98.751
 21
142.0
  0
LINE
  8
0
  6
CONTINUOUS
 62
     1
 10
104.416
 20
130.0
 11
98.751
 21
130.0
  0
LINE
  8
0
  6
CONTINUOUS
 62
     1
 10
101.251
 20
157.75
 11
101.251
 21
143.0
  0
LINE
  8
0
  6
CONTINUOUS
 62
     1
 10
101.251
 20
129.0
 11
101.251
 21
114.25
  0
LINE
  8
0
  6
CONTINUOUS
 62
     1
 10
101.251
 20
142.0
 11
101.251
 21
130.0
  0
LINE
  8
0
  6
CONTINUOUS
 62
     1
 10
103.451
 20
142.0
 11
103.451
 21
160.0
  0
LINE
  8
0
  6
CONTINUOUS
 62
     1
 10
103.451
 20
112.0
 11
103.451
 21
130.0
  0
LINE
  8
0
  6
CONTINUOUS
 62
     1
 10
100.251
 20
140.0
 11
100.251
 21
132.0
  0
LINE
  8
0
  6
CONTINUOUS
 62
     1
 10
100.251
 20
132.0
 11
98.751
 21
132.0
  0
LINE
  8
0
  6
CONTINUOUS
 62
     1
 10
98.751
 20
140.0
 11
100.251
 21
140.0
  0
LINE
  8
0
  6
CONTINUOUS
 62
     1
 10
26.451
 20
155.5
 11
19.451
 21
155.5
  0
LINE
  8
0
  6
CONTINUOUS
 62
     1
 10
19.451
 20
155.5
 11
19.451
 21
158.35
  0
LINE
  8
0
  6
CONTINUOUS
 62
     1
 10
26.451
 20
155.5
 11
26.451
 21
158.35
  0
LINE
  8
0
  6
CONTINUOUS
 62
     1
 10
91.451
 20
155.5
 11
84.451
 21
155.5
  0
LINE
  8
0
  6
CONTINUOUS
 62
     1
 10
84.451
 20
155.5
 11
84.451
 21
158.35
  0
LINE
  8
0
  6
CONTINUOUS
 62
     1
 10
91.451
 20
155.5
 11
91.451
 21
158.35
  0
LINE
  8
0
  6
CONTINUOUS
 62
     1
 10
91.451
 20
157.0
 11
84.451
 21
157.0
  0
LINE
  8
0
  6
CONTINUOUS
 62
     1
 10
26.451
 20
157.0
 11
19.451
 21
157.0
  0
LINE
  8
0
  6
CONTINUOUS
 62
     1
 10
90.451
 20
158.35
 11
90.451
 21
157.0
  0
LINE
  8
0
  6
CONTINUOUS
 62
     1
 10
85.451
 20
158.35
 11
85.451
 21
157.0
  0
LINE
  8
0
  6
CONTINUOUS
 62
     1
 10
25.451
 20
158.35
 11
25.451
 21
157.0
  0
LINE
  8
0
  6
CONTINUOUS
 62
     1
 10
20.451
 20
158.35
 11
20.451
 21
157.0
  0
LINE
  8
0
  6
CONTINUOUS
 62
     1
 10
36.451
 20
117.3
 11
30.451
 21
117.3
  0
LINE
  8
0
  6
CONTINUOUS
 62
     1
 10
30.451
 20
117.3
 11
30.451
 21
115.0
  0
LINE
  8
0
  6
CONTINUOUS
 62
     1
 10
30.451
 20
115.0
 11
36.451
 21
115.0
  0
LINE
  8
0
  6
CONTINUOUS
 62
     1
 10
36.451
 20
115.0
 11
36.451
 21
117.3
  0
LINE
  8
0
  6
CONTINUOUS
 62
     1
 10
80.451
 20
117.3
 11
74.451
 21
117.3
  0
LINE
  8
0
  6
CONTINUOUS
 62
     1
 10
74.451
 20
117.3
 11
74.451
 21
115.0
  0
LINE
  8
0
  6
CONTINUOUS
 62
     1
 10
74.451
 20
115.0
 11
80.451
 21
115.0
  0
LINE
  8
0
  6
CONTINUOUS
 62
     1
 10
80.451
 20
115.0
 11
80.451
 21
117.3
  0
LINE
  8
0
  6
CONTINUOUS
 62
     1
 10
79.951
 20
144.6
 11
79.951
 21
153.7
  0
LINE
  8
0
  6
CONTINUOUS
 62
     1
 10
30.951
 20
144.6
 11
30.951
 21
153.7
  0
LINE
  8
0
  6
CONTINUOUS
 62
     1
 10
79.951
 20
144.6
 11
30.951
 21
144.6
  0
LINE
  8
0
  6
CONTINUOUS
 62
     1
 10
30.951
 20
153.7
 11
79.951
 21
153.7
  0
LINE
  8
0
  6
CONTINUOUS
 62
     1
 10
92.951
 20
122.0
 11
92.951
 21
140.0
  0
LINE
  8
0
  6
CONTINUOUS
 62
     1
 10
17.951
 20
122.0
 11
17.951
 21
140.0
  0
LINE
  8
0
  6
CONTINUOUS
 62
     1
 10
92.951
 20
140.0
 11
17.951
 21
140.0
  0
LINE
  8
0
  6
CONTINUOUS
 62
     1
 10
17.951
 20
122.0
 11
92.951
 21
122.0
  0
LINE
  8
0
  6
CONTINUOUS
 62
     1
 10
6.486
 20
130.0
 11
6.486
 21
142.0
  0
LINE
  8
0
  6
CONTINUOUS
 62
     1
 10
12.151
 20
143.0
 11
12.151
 21
129.0
  0
LINE
  8
0
  6
CONTINUOUS
 62
     1
 10
9.651
 20
143.0
 11
12.151
 21
143.0
  0
LINE
  8
0
  6
CONTINUOUS
 62
     1
 10
9.651
 20
129.0
 11
12.151
 21
129.0
  0
LINE
  8
0
  6
CONTINUOUS
 62
     1
 10
6.486
 20
142.0
 11
12.151
 21
142.0
  0
LINE
  8
0
  6
CONTINUOUS
 62
     1
 10
6.486
 20
130.0
 11
12.151
 21
130.0
  0
LINE
  8
0
  6
CONTINUOUS
 62
     1
 10
9.651
 20
157.75
 11
9.651
 21
143.0
  0
LINE
  8
0
  6
CONTINUOUS
 62
     1
 10
9.651
 20
129.0
 11
9.651
 21
114.25
  0
LINE
  8
0
  6
CONTINUOUS
 62
     1
 10
9.651
 20
142.0
 11
9.651
 21
130.0
  0
LINE
  8
0
  6
CONTINUOUS
 62
     1
 10
7.451
 20
142.0
 11
7.451
 21
160.0
  0
LINE
  8
0
  6
CONTINUOUS
 62
     1
 10
7.451
 20
112.0
 11
7.451
 21
130.0
  0
LINE
  8
0
  6
CONTINUOUS
 62
     1
 10
10.651
 20
140.0
 11
10.651
 21
132.0
  0
LINE
  8
0
  6
CONTINUOUS
 62
     1
 10
10.651
 20
132.0
 11
12.151
 21
132.0
  0
LINE
  8
0
  6
CONTINUOUS
 62
     1
 10
12.151
 20
140.0
 11
10.651
 21
140.0
  0
LINE
  8
0
  6
CONTINUOUS
 62
     1
 10
75.951
 20
147.1
 11
75.951
 21
148.7
  0
LINE
  8
0
  6
CONTINUOUS
 62
     1
 10
75.951
 20
148.7
 11
34.951
 21
148.7
  0
LINE
  8
0
  6
CONTINUOUS
 62
     1
 10
34.951
 20
148.7
 11
34.951
 21
147.1
  0
LINE
  8
0
  6
CONTINUOUS
 62
     1
 10
34.951
 20
147.1
 11
75.951
 21
147.1
  0
LINE
  8
0
  6
CONTINUOUS
 62
     1
 10
169.651
 20
10.65
 11
157.451
 21
10.575
  0
LINE
  8
0
  6
CONTINUOUS
 62
     1
 10
169.651
 20
55.35
 11
157.451
 21
55.425
  0
LINE
  8
0
  6
CONTINUOUS
 62
     1
 10
169.651
 20
10.65
 11
169.651
 21
55.35
  0
LINE
  8
0
  6
CONTINUOUS
 62
     1
 10
157.951
 20
39.0
 11
157.951
 21
27.0
  0
LINE
  8
0
  6
CONTINUOUS
 62
     1
 10
162.751
 20
39.0
 11
162.751
 21
27.0
  0
LINE
  8
0
  6
CONTINUOUS
 62
     1
 10
162.251
 20
39.0
 11
162.251
 21
27.0
  0
LINE
  8
0
  6
CONTINUOUS
 62
     1
 10
161.751
 20
39.0
 11
161.751
 21
27.0
  0
LINE
  8
0
  6
CONTINUOUS
 62
     1
 10
161.251
 20
39.0
 11
161.251
 21
27.0
  0
LINE
  8
0
  6
CONTINUOUS
 62
     1
 10
160.751
 20
39.0
 11
160.751
 21
27.0
  0
LINE
  8
0
  6
CONTINUOUS
 62
     1
 10
160.251
 20
39.0
 11
160.251
 21
27.0
  0
LINE
  8
0
  6
CONTINUOUS
 62
     1
 10
159.751
 20
39.0
 11
159.751
 21
27.0
  0
LINE
  8
0
  6
CONTINUOUS
 62
     1
 10
159.251
 20
39.0
 11
159.251
 21
27.0
  0
LINE
  8
0
  6
CONTINUOUS
 62
     1
 10
158.751
 20
39.0
 11
158.751
 21
27.0
  0
LINE
  8
0
  6
CONTINUOUS
 62
     1
 10
158.251
 20
39.0
 11
158.251
 21
27.0
  0
LINE
  8
0
  6
CONTINUOUS
 62
     1
 10
169.151
 20
39.0
 11
169.151
 21
27.0
  0
LINE
  8
0
  6
CONTINUOUS
 62
     1
 10
169.151
 20
39.0
 11
157.951
 21
39.0
  0
LINE
  8
0
  6
CONTINUOUS
 62
     1
 10
169.151
 20
27.0
 11
157.951
 21
27.0
  0
LINE
  8
0
  6
CONTINUOUS
 62
     1
 10
169.651
 20
26.0
 11
157.451
 21
26.0
  0
LINE
  8
0
  6
CONTINUOUS
 62
     1
 10
169.651
 20
40.0
 11
157.451
 21
40.0
  0
LINE
  8
0
  6
CONTINUOUS
 62
     1
 10
168.151
 20
39.0
 11
168.151
 21
40.0
  0
LINE
  8
0
  6
CONTINUOUS
 62
     1
 10
168.151
 20
26.0
 11
168.151
 21
27.0
  0
LINE
  8
0
  6
CONTINUOUS
 62
     1
 10
155.951
 20
57.0
 11
157.451
 21
57.0
  0
POINT
  8
0
  6
CONTINUOUS
 62
     1
 10
157.451
 20
57.0
  0
LINE
  8
0
  6
CONTINUOUS
 62
     1
 10
157.451
 20
57.0
 11
157.451
 21
55.4
  0
POINT
  8
0
  6
CONTINUOUS
 62
     1
 10
157.451
 20
55.4
  0
LINE
  8
0
  6
CONTINUOUS
 62
     1
 10
151.501
 20
55.25
 11
151.151
 21
55.25
  0
LINE
  8
0
  6
CONTINUOUS
 62
     1
 10
151.551
 20
57.0
 11
155.951
 21
57.0
  0
LINE
  8
0
  6
CONTINUOUS
 62
     1
 10
151.151
 20
56.6
 11
151.151
 21
55.25
  0
LINE
  8
0
  6
CONTINUOUS
 62
     1
 10
151.551
 20
57.0
 11
151.151
 21
56.6
  0
LINE
  8
0
  6
CONTINUOUS
 62
     1
 10
155.951
 20
9.0
 11
157.451
 21
9.0
  0
POINT
  8
0
  6
CONTINUOUS
 62
     1
 10
157.451
 20
9.0
  0
LINE
  8
0
  6
CONTINUOUS
 62
     1
 10
157.451
 20
9.0
 11
157.451
 21
10.6
  0
POINT
  8
0
  6
CONTINUOUS
 62
     1
 10
157.451
 20
10.6
  0
LINE
  8
0
  6
CONTINUOUS
 62
     1
 10
151.501
 20
10.75
 11
151.151
 21
10.75
  0
LINE
  8
0
  6
CONTINUOUS
 62
     1
 10
151.151
 20
9.4
 11
151.151
 21
10.75
  0
LINE
  8
0
  6
CONTINUOUS
 62
     1
 10
151.551
 20
9.0
 11
155.951
 21
9.0
  0
LINE
  8
0
  6
CONTINUOUS
 62
     1
 10
151.151
 20
9.4
 11
151.551
 21
9.0
  0
LINE
  8
0
  6
CONTINUOUS
 62
     1
 10
151.501
 20
55.25
 11
151.501
 21
10.75
  0
LINE
  8
0
  6
CONTINUOUS
 62
     1
 10
156.151
 20
54.25
 11
155.651
 21
54.25
  0
LINE
  8
0
  6
CONTINUOUS
 62
     1
 10
156.151
 20
54.25
 11
156.151
 21
57.0
  0
LINE
  8
0
  6
CONTINUOUS
 62
     1
 10
156.151
 20
11.75
 11
155.651
 21
11.75
  0
LINE
  8
0
  6
CONTINUOUS
 62
     1
 10
156.151
 20
11.75
 11
156.151
 21
9.0
  0
LINE
  8
0
  6
CONTINUOUS
 62
     1
 10
157.451
 20
55.4
 11
157.451
 21
9.0
  0
LINE
  8
0
  6
CONTINUOUS
 62
     1
 10
155.651
 20
11.75
 11
155.651
 21
54.25
  0
LINE
  8
0
  6
CONTINUOUS
 62
     1
 10
176.851
 20
21.9
 11
169.651
 21
21.9
  0
LINE
  8
0
  6
CONTINUOUS
 62
     1
 10
177.151
 20
21.6
 11
176.851
 21
21.9
  0
LINE
  8
0
  6
CONTINUOUS
 62
     1
 10
169.651
 20
20.3
 11
176.851
 21
20.3
  0
LINE
  8
0
  6
CONTINUOUS
 62
     1
 10
177.151
 20
20.6
 11
177.151
 21
21.6
  0
ARC
  8
0
  6
CONTINUOUS
 62
     1
 10
176.851
 20
20.6
 40
0.3
 50
270.0
 51
0.0
  0
LINE
  8
0
  6
CONTINUOUS
 62
     1
 10
192.451
 20
119.5
 11
146.451
 21
119.5
  0
LINE
  8
0
  6
CONTINUOUS
 62
     1
 10
146.451
 20
119.5
 11
146.451
 21
142.0
  0
LINE
  8
0
  6
CONTINUOUS
 62
     1
 10
192.451
 20
119.5
 11
192.451
 21
142.0
  0
LINE
  8
0
  6
CONTINUOUS
 62
     1
 10
192.451
 20
142.0
 11
146.451
 21
142.0
  0
TEXT
  8
0
  6
CONTINUOUS
 62
     1
 10
157.460298287
 20
153.9
 30
0.4
 40
3.0
  1
ＰＡＮＥＬ　ＣＵＴ
 50
0.0
 41
0.8
 51
0.0
  7
KANJI0
  0
LINE
  8
0
  6
LTYPE1
 62
     1
 10
169.651
 20
23.8
 11
180.851
 21
23.8
  0
LINE
  8
0
  6
LTYPE1
 62
     1
 10
180.851
 20
23.8
 11
180.851
 21
16.8
  0
LINE
  8
0
  6
LTYPE1
 62
     1
 10
180.851
 20
16.8
 11
169.651
 21
16.8
  0
LINE
  8
0
  6
LTYPE1
 62
     1
 10
185.651
 20
19.1
 11
185.651
 21
19.5
  0
LINE
  8
0
  6
LTYPE1
 62
     1
 10
180.851
 20
19.1
 11
185.651
 21
19.1
  0
LINE
  8
0
  6
LTYPE1
 62
     1
 10
185.651
 20
19.5
 11
180.851
 21
19.5
  0
LINE
  8
0
  6
CONTINUOUS
 62
     3
 10
194.651
 20
10.65
 11
195.16863809
 21
12.581851653
  0
LINE
  8
0
  6
CONTINUOUS
 62
     3
 10
194.651
 20
10.65
 11
194.13336191
 21
12.581851653
  0
LINE
  8
0
  6
CONTINUOUS
 62
     3
 10
170.651
 20
10.65
 11
195.651
 21
10.65
  0
LINE
  8
0
  6
CONTINUOUS
 62
     3
 10
151.151
 20
1.0
 11
153.082851653
 21
0.48236191
  0
LINE
  8
0
  6
CONTINUOUS
 62
     3
 10
151.151
 20
1.0
 11
153.082851653
 21
1.51763809
  0
LINE
  8
0
  6
CONTINUOUS
 62
     3
 10
151.151
 20
1.0
 11
177.151
 21
1.0
  0
LINE
  8
0
  6
CONTINUOUS
 62
     3
 10
177.151
 20
1.0
 11
175.219148348
 21
1.51763809
  0
LINE
  8
0
  6
CONTINUOUS
 62
     3
 10
177.151
 20
1.0
 11
175.219148348
 21
0.48236191
  0
TEXT
  8
0
  6
CONTINUOUS
 62
     3
 10
162.451
 20
2.0
 30
0.0
 40
2.0
  1
２６
 50
0.0
 41
0.85
 51
0.0
  7
KANJI1
  0
LINE
  8
0
  6
CONTINUOUS
 62
     3
 10
151.151
 20
5.0
 11
153.082851653
 21
4.48236191
  0
LINE
  8
0
  6
CONTINUOUS
 62
     3
 10
151.151
 20
5.0
 11
153.082851653
 21
5.51763809
  0
LINE
  8
0
  6
CONTINUOUS
 62
     3
 10
151.151
 20
5.0
 11
157.451
 21
5.0
  0
LINE
  8
0
  6
CONTINUOUS
 62
     3
 10
157.451
 20
5.0
 11
155.519148348
 21
5.51763809
  0
LINE
  8
0
  6
CONTINUOUS
 62
     3
 10
157.451
 20
5.0
 11
155.519148348
 21
4.48236191
  0
LINE
  8
0
  6
CONTINUOUS
 62
     3
 10
157.451
 20
5.0
 11
159.382851653
 21
4.48236191
  0
LINE
  8
0
  6
CONTINUOUS
 62
     3
 10
157.451
 20
5.0
 11
159.382851653
 21
5.51763809
  0
LINE
  8
0
  6
CONTINUOUS
 62
     3
 10
157.451
 20
5.0
 11
169.651
 21
5.0
  0
LINE
  8
0
  6
CONTINUOUS
 62
     3
 10
169.651
 20
5.0
 11
167.719148348
 21
5.51763809
  0
LINE
  8
0
  6
CONTINUOUS
 62
     3
 10
169.651
 20
5.0
 11
167.719148348
 21
4.48236191
  0
LINE
  8
0
  6
CONTINUOUS
 62
     3
 10
169.651
 20
5.0
 11
171.582851653
 21
4.48236191
  0
LINE
  8
0
  6
CONTINUOUS
 62
     3
 10
169.651
 20
5.0
 11
171.582851653
 21
5.51763809
  0
LINE
  8
0
  6
CONTINUOUS
 62
     3
 10
169.651
 20
5.0
 11
177.151
 21
5.0
  0
LINE
  8
0
  6
CONTINUOUS
 62
     3
 10
177.151
 20
5.0
 11
175.219148348
 21
5.51763809
  0
LINE
  8
0
  6
CONTINUOUS
 62
     3
 10
177.151
 20
5.0
 11
175.219148348
 21
4.48236191
  0
TEXT
  8
0
  6
CONTINUOUS
 62
     3
 10
165.951
 20
2.75
 30
0.0
 40
1.5
  1
±１
 50
0.0
 41
0.866666667
 51
0.0
  7
KANJI2
  0
LINE
  8
0
  6
CONTINUOUS
 62
     3
 10
151.151
 20
8.4
 11
151.151
 21
0.0
  0
LINE
  8
0
  6
CONTINUOUS
 62
     3
 10
177.151
 20
19.60000259
 11
177.151
 21
0.0
  0
LINE
  8
0
  6
CONTINUOUS
 62
     3
 10
151.151
 20
8.0
 11
151.151
 21
4.0
  0
LINE
  8
0
  6
CONTINUOUS
 62
     3
 10
157.451
 20
8.0
 11
157.451
 21
4.0
  0
TEXT
  8
0
  6
CONTINUOUS
 62
     3
 10
152.404736037
 20
6.0
 30
0.0
 40
2.0
  1
６．３
 50
0.0
 41
0.85
 51
0.0
  7
KANJI1
  0
LINE
  8
0
  6
CONTINUOUS
 62
     3
 10
157.451
 20
8.0
 11
157.451
 21
4.0
  0
LINE
  8
0
  6
CONTINUOUS
 62
     3
 10
169.651
 20
9.65
 11
169.651
 21
4.0
  0
TEXT
  8
0
  6
CONTINUOUS
 62
     3
 10
160.151
 20
6.0
 30
0.0
 40
2.0
  1
１２．２
 50
0.0
 41
0.85
 51
0.0
  7
KANJI1
  0
LINE
  8
0
  6
CONTINUOUS
 62
     3
 10
169.651
 20
9.65
 11
169.651
 21
4.0
  0
LINE
  8
0
  6
CONTINUOUS
 62
     3
 10
177.151
 20
19.60000259
 11
177.151
 21
4.0
  0
TEXT
  8
0
  6
CONTINUOUS
 62
     3
 10
169.651
 20
6.0
 30
0.0
 40
2.0
  1
（７．５）
 50
0.0
 41
0.75
 51
0.0
  7
KANJI3
  0
LINE
  8
0
  6
CONTINUOUS
 62
     3
 10
157.951
 20
11.441025404
 11
162.951
 21
20.101279441
  0
LINE
  8
0
  6
CONTINUOUS
 62
     3
 10
162.451
 20
19.235254038
 11
162.96863809
 21
21.16710569
  0
LINE
  8
0
  6
CONTINUOUS
 62
     3
 10
162.451
 20
19.235254038
 11
161.93336191
 21
21.16710569
  0
TEXT
  8
0
  6
CONTINUOUS
 62
     3
 10
161.451
 20
42.410254038
 30
0.0
 40
2.0
  1
４４．９
 50
90.0
 41
0.85
 51
0.0
  7
KANJI1
  0
LINE
  8
0
  6
CONTINUOUS
 62
     3
 10
151.151
 20
57.6
 11
151.151
 21
63.0
  0
LINE
  8
0
  6
CONTINUOUS
 62
     3
 10
151.151
 20
62.0
 11
153.082851653
 21
61.48236191
  0
LINE
  8
0
  6
CONTINUOUS
 62
     3
 10
151.151
 20
62.0
 11
153.082851653
 21
62.51763809
  0
LINE
  8
0
  6
CONTINUOUS
 62
     3
 10
162.451
 20
64.085254038
 11
161.93336191
 21
62.153402385
  0
LINE
  8
0
  6
CONTINUOUS
 62
     3
 10
162.451
 20
64.085254038
 11
162.96863809
 21
62.153402385
  0
LINE
  8
0
  6
CONTINUOUS
 62
     3
 10
157.951
 20
56.291025404
 11
162.951
 21
64.951279441
  0
LINE
  8
0
  6
CONTINUOUS
 62
     3
 10
162.451
 20
19.235254038
 11
162.451
 21
64.085254038
  0
TEXT
  8
0
  6
CONTINUOUS
 62
     3
 10
171.716
 20
64.2
 30
0.0
 40
1.5
  1
±１
 50
0.0
 41
0.866666667
 51
0.0
  7
KANJI2
  0
TEXT
  8
0
  6
CONTINUOUS
 62
     3
 10
164.491
 20
63.0
 30
0.0
 40
2.0
  1
３４．５
 50
0.0
 41
0.85
 51
0.0
  7
KANJI1
  0
LINE
  8
0
  6
CONTINUOUS
 62
     3
 10
185.651
 20
62.0
 11
183.719148348
 21
62.51763809
  0
LINE
  8
0
  6
CONTINUOUS
 62
     3
 10
185.651
 20
62.0
 11
183.719148348
 21
61.48236191
  0
LINE
  8
0
  6
CONTINUOUS
 62
     3
 10
185.651
 20
20.5
 11
185.651
 21
63.0
  0
LINE
  8
0
  6
CONTINUOUS
 62
     3
 10
170.651
 20
55.35
 11
195.651
 21
55.35
  0
LINE
  8
0
  6
CONTINUOUS
 62
     3
 10
194.651
 20
55.35
 11
194.13336191
 21
53.418148347
  0
LINE
  8
0
  6
CONTINUOUS
 62
     3
 10
194.651
 20
55.35
 11
195.16863809
 21
53.418148347
  0
LINE
  8
0
  6
CONTINUOUS
 62
     3
 10
151.151
 20
62.0
 11
185.651
 21
62.0
  0
TEXT
  8
0
  6
CONTINUOUS
 62
     3
 10
193.651
 20
34.6
 30
0.0
 40
2.0
  1
４４．８
 50
90.0
 41
0.85
 51
0.0
  7
KANJI1
  0
LINE
  8
0
  6
CONTINUOUS
 62
     3
 10
194.651
 20
55.35
 11
194.651
 21
10.65
  0
LINE
  8
0
  6
CONTINUOUS
 62
     3
 10
121.451
 20
57.0
 11
120.93336191
 21
55.068148347
  0
LINE
  8
0
  6
CONTINUOUS
 62
     3
 10
121.451
 20
57.0
 11
121.96863809
 21
55.068148347
  0
LINE
  8
0
  6
CONTINUOUS
 62
     3
 10
121.451
 20
57.0
 11
121.451
 21
9.0
  0
LINE
  8
0
  6
CONTINUOUS
 62
     3
 10
121.451
 20
9.0
 11
121.96863809
 21
10.931851653
  0
LINE
  8
0
  6
CONTINUOUS
 62
     3
 10
121.451
 20
9.0
 11
120.93336191
 21
10.931851653
  0
LINE
  8
0
  6
CONTINUOUS
 62
     3
 10
104.451
 20
9.0
 11
122.451
 21
9.0
  0
LINE
  8
0
  6
CONTINUOUS
 62
     3
 10
104.451
 20
57.0
 11
122.451
 21
57.0
  0
TEXT
  8
0
  6
CONTINUOUS
 62
     3
 10
120.451
 20
34.3
 30
0.0
 40
2.0
  1
４８
 50
90.0
 41
0.85
 51
0.0
  7
KANJI1
  0
LINE
  8
0
  6
CONTINUOUS
 62
     3
 10
7.451
 20
1.0
 11
103.451
 21
1.0
  0
LINE
  8
0
  6
CONTINUOUS
 62
     3
 10
103.451
 20
1.0
 11
101.519148347
 21
1.51763809
  0
LINE
  8
0
  6
CONTINUOUS
 62
     3
 10
103.451
 20
1.0
 11
101.519148347
 21
0.48236191
  0
LINE
  8
0
  6
CONTINUOUS
 62
     3
 10
103.451
 20
8.0
 11
103.451
 21
0.0
  0
LINE
  8
0
  6
CONTINUOUS
 62
     3
 10
7.451
 20
8.0
 11
7.451
 21
0.0
  0
TEXT
  8
0
  6
CONTINUOUS
 62
     3
 10
56.751
 20
2.0
 30
0.0
 40
2.0
  1
９６
 50
0.0
 41
0.85
 51
0.0
  7
KANJI1
  0
LINE
  8
0
  6
CONTINUOUS
 62
     3
 10
0.865745962
 20
82.5
 11
2.797597615
 21
81.98236191
  0
LINE
  8
0
  6
CONTINUOUS
 62
     3
 10
0.865745962
 20
82.5
 11
2.797597615
 21
83.01763809
  0
LINE
  8
0
  6
CONTINUOUS
 62
     3
 10
9.526
 20
77.5
 11
-0.000279442
 21
83.0
  0
LINE
  8
0
  6
CONTINUOUS
 62
     3
 10
92.715745962
 20
82.5
 11
90.78389431
 21
83.01763809
  0
LINE
  8
0
  6
CONTINUOUS
 62
     3
 10
92.715745962
 20
82.5
 11
90.78389431
 21
81.98236191
  0
LINE
  8
0
  6
CONTINUOUS
 62
     3
 10
101.376
 20
77.5
 11
91.849720558
 21
83.0
  0
LINE
  8
0
  6
CONTINUOUS
 62
     3
 10
92.715745962
 20
82.5
 11
0.865745962
 21
82.5
  0
LINE
  8
0
  6
CONTINUOUS
 62
     3
 10
9.651
 20
101.5
 11
11.582851653
 21
100.98236191
  0
LINE
  8
0
  6
CONTINUOUS
 62
     3
 10
9.651
 20
101.5
 11
11.582851653
 21
102.01763809
  0
LINE
  8
0
  6
CONTINUOUS
 62
     3
 10
9.651
 20
90.5
 11
9.651
 21
102.5
  0
LINE
  8
0
  6
CONTINUOUS
 62
     3
 10
101.251
 20
101.5
 11
99.319148347
 21
102.01763809
  0
LINE
  8
0
  6
CONTINUOUS
 62
     3
 10
101.251
 20
101.5
 11
99.319148347
 21
100.98236191
  0
LINE
  8
0
  6
CONTINUOUS
 62
     3
 10
101.251
 20
90.5
 11
101.251
 21
102.5
  0
LINE
  8
0
  6
CONTINUOUS
 62
     3
 10
9.651
 20
101.5
 11
101.251
 21
101.5
  0
LINE
  8
0
  6
CONTINUOUS
 62
     3
 10
146.451
 20
143.0
 11
146.451
 21
148.0
  0
LINE
  8
0
  6
CONTINUOUS
 62
     3
 10
146.451
 20
147.0
 11
148.382851653
 21
146.48236191
  0
LINE
  8
0
  6
CONTINUOUS
 62
     3
 10
146.451
 20
147.0
 11
148.382851653
 21
147.51763809
  0
LINE
  8
0
  6
CONTINUOUS
 62
     3
 10
146.451
 20
147.0
 11
192.451
 21
147.0
  0
LINE
  8
0
  6
CONTINUOUS
 62
     3
 10
192.451
 20
147.0
 11
190.519148348
 21
147.51763809
  0
LINE
  8
0
  6
CONTINUOUS
 62
     3
 10
192.451
 20
147.0
 11
190.519148348
 21
146.48236191
  0
LINE
  8
0
  6
CONTINUOUS
 62
     3
 10
192.451
 20
143.0
 11
192.451
 21
148.0
  0
TEXT
  8
0
  6
CONTINUOUS
 62
     3
 10
171.751
 20
148.0
 30
0.0
 40
2.0
  1
９２
 50
0.0
 41
0.85
 51
0.0
  7
KANJI1
  0
TEXT
  8
0
  6
CONTINUOUS
 62
     3
 10
175.501
 20
149.75
 30
0.0
 40
1.5
  1
＋０．４
 50
0.0
 41
0.866666667
 51
0.0
  7
KANJI2
  0
TEXT
  8
0
  6
CONTINUOUS
 62
     3
 10
175.501
 20
148.25
 30
0.0
 40
1.5
  1
－０
 50
0.0
 41
0.866666667
 51
0.0
  7
KANJI2
  0
LINE
  8
0
  6
CONTINUOUS
 62
     3
 10
193.451
 20
142.0
 11
203.451
 21
142.0
  0
LINE
  8
0
  6
CONTINUOUS
 62
     3
 10
202.451
 20
142.0
 11
201.93336191
 21
140.068148347
  0
LINE
  8
0
  6
CONTINUOUS
 62
     3
 10
202.451
 20
142.0
 11
202.96863809
 21
140.068148347
  0
LINE
  8
0
  6
CONTINUOUS
 62
     3
 10
202.451
 20
142.0
 11
202.451
 21
119.5
  0
LINE
  8
0
  6
CONTINUOUS
 62
     3
 10
202.451
 20
119.5
 11
202.96863809
 21
121.431851653
  0
LINE
  8
0
  6
CONTINUOUS
 62
     3
 10
202.451
 20
119.5
 11
201.93336191
 21
121.431851653
  0
LINE
  8
0
  6
CONTINUOUS
 62
     3
 10
193.451
 20
119.5
 11
203.451
 21
119.5
  0
TEXT
  8
0
  6
CONTINUOUS
 62
     3
 10
201.451
 20
131.05
 30
0.0
 40
2.0
  1
４５
 50
90.0
 41
0.85
 51
0.0
  7
KANJI1
  0
TEXT
  8
0
  6
CONTINUOUS
 62
     3
 10
201.201
 20
134.8
 30
0.0
 40
1.5
  1
－０
 50
90.0
 41
0.866666667
 51
0.0
  7
KANJI2
  0
TEXT
  8
0
  6
CONTINUOUS
 62
     3
 10
199.701
 20
134.8
 30
0.0
 40
1.5
  1
＋０．３
 50
90.0
 41
0.866666667
 51
0.0
  7
KANJI2
  0
LINE
  8
0
  6
CONTINUOUS
 62
     1
 10
157.451
 20
55.4
 11
157.451
 21
9.0
  0
LINE
  8
0
  6
CONTINUOUS
 62
     1
 10
36.69671987
 20
32.240369021
 11
41.221093445
 21
32.240369021
  0
LINE
  8
0
  6
CONTINUOUS
 62
     1
 10
38.868419186
 20
33.597681093
 11
36.787207341
 21
33.597681093
  0
LINE
  8
0
  6
CONTINUOUS
 62
     1
 10
35.52038274
 20
33.054756264
 11
36.606232398
 21
32.240369021
  0
LINE
  8
0
  6
CONTINUOUS
 62
     1
 10
36.69671987
 20
33.597681093
 11
35.52038274
 21
33.054756264
  0
LINE
  8
0
  6
CONTINUOUS
 62
     1
 10
43.333410357
 20
38.823332572
 11
42.473779378
 21
32.851159453
  0
LINE
  8
0
  6
CONTINUOUS
 62
     1
 10
41.806434276
 20
37.4660205
 11
41.229576645
 21
33.756034168
  0
LINE
  8
0
  6
CONTINUOUS
 62
     1
 10
40.904387294
 20
31.833175399
 11
40.451949937
 21
28.213676539
  0
LINE
  8
0
  6
CONTINUOUS
 62
     1
 10
42.405913774
 20
32.308234624
 11
41.659392135
 21
27.24093622
  0
LINE
  8
0
  6
CONTINUOUS
 62
     1
 10
40.406706201
 20
28.168432803
 11
41.402068388
 21
27.173070617
  0
LINE
  8
0
  6
CONTINUOUS
 62
     1
 10
41.402068388
 20
27.122799799
 11
41.583043331
 21
27.263558088
  0
LINE
  8
0
  6
CONTINUOUS
 62
     1
 10
42.306943103
 20
32.602318907
 11
41.040118502
 21
32.240369021
  0
LINE
  8
0
  6
CONTINUOUS
 62
     1
 10
41.040118502
 20
31.968906606
 11
42.397430574
 21
32.330856492
  0
LINE
  8
0
  6
CONTINUOUS
 62
     1
 10
41.040118502
 20
33.597681093
 11
38.958906657
 21
33.597681093
  0
LINE
  8
0
  6
CONTINUOUS
 62
     1
 10
41.130605973
 20
33.507193622
 11
42.306943103
 21
32.602318907
  0
LINE
  8
0
  6
CONTINUOUS
 62
     1
 10
41.221093445
 20
33.778656036
 11
42.397430574
 21
32.873781321
  0
LINE
  8
0
  6
CONTINUOUS
 62
     1
 10
43.121330346
 20
38.949368693
 11
43.302305289
 21
38.84595444
  0
LINE
  8
0
  6
CONTINUOUS
 62
     1
 10
43.030842875
 20
38.936441912
 11
41.944993217
 21
37.579129839
  0
TEXT
  8
0
  6
CONTINUOUS
 62
     3
 10
57.051
 20
102.5
 30
0.0
 40
2.0
  1
９１．６
 50
0.0
 41
0.85
 51
0.0
  7
KANJI1
  0
TEXT
  8
0
  6
CONTINUOUS
 62
     3
 10
42.540745962
 20
83.5
 30
0.0
 40
2.0
  1
９１．８５
 50
0.0
 41
0.85
 51
0.0
  7
KANJI1
  0
ENDSEC
  0
EOF
