  0
SECTION
  2
HEADER
  9
$ACADVER
  1
AC1015
  9
$ACADMAINTVER
 70
     6
  9
$DWGCODEPAGE
  3
ANSI_932
  9
$INSBASE
 10
0.0
 20
0.0
 30
0.0
  9
$EXTMIN
 10
-5.941616374145985E+73
 20
-1.269263905633295E+99
 30
0.0
  9
$EXTMAX
 10
6.282985302827068E+99
 20
5.941616374145985E+73
 30
0.4
  9
$LIMMIN
 10
0.0
 20
0.0
  9
$LIMMAX
 10
12.0
 20
9.0
  9
$ORTHOMODE
 70
     0
  9
$REGENMODE
 70
     1
  9
$FILLMODE
 70
     1
  9
$QTEXTMODE
 70
     0
  9
$MIRRTEXT
 70
     1
  9
$LTSCALE
 40
1.0
  9
$ATTMODE
 70
     1
  9
$TEXTSIZE
 40
0.2
  9
$TRACEWID
 40
0.05
  9
$TEXTSTYLE
  7
STANDARD
  9
$CLAYER
  8
0
  9
$CELTYPE
  6
CONTINUOUS
  9
$CECOLOR
 62
   256
  9
$CELTSCALE
 40
1.0
  9
$DISPSILH
 70
     0
  9
$DIMSCALE
 40
1.0
  9
$DIMASZ
 40
0.18
  9
$DIMEXO
 40
0.0625
  9
$DIMDLI
 40
0.38
  9
$DIMRND
 40
0.0
  9
$DIMDLE
 40
0.0
  9
$DIMEXE
 40
0.18
  9
$DIMTP
 40
0.0
  9
$DIMTM
 40
0.0
  9
$DIMTXT
 40
0.18
  9
$DIMCEN
 40
0.09
  9
$DIMTSZ
 40
0.0
  9
$DIMTOL
 70
     0
  9
$DIMLIM
 70
     0
  9
$DIMTIH
 70
     1
  9
$DIMTOH
 70
     1
  9
$DIMSE1
 70
     0
  9
$DIMSE2
 70
     0
  9
$DIMTAD
 70
     0
  9
$DIMZIN
 70
     0
  9
$DIMBLK
  1

  9
$DIMASO
 70
     1
  9
$DIMSHO
 70
     1
  9
$DIMPOST
  1

  9
$DIMAPOST
  1

  9
$DIMALT
 70
     0
  9
$DIMALTD
 70
     2
  9
$DIMALTF
 40
25.4
  9
$DIMLFAC
 40
1.0
  9
$DIMTOFL
 70
     0
  9
$DIMTVP
 40
0.0
  9
$DIMTIX
 70
     0
  9
$DIMSOXD
 70
     0
  9
$DIMSAH
 70
     0
  9
$DIMBLK1
  1

  9
$DIMBLK2
  1

  9
$DIMSTYLE
  2
STANDARD
  9
$DIMCLRD
 70
     0
  9
$DIMCLRE
 70
     0
  9
$DIMCLRT
 70
     0
  9
$DIMTFAC
 40
1.0
  9
$DIMGAP
 40
0.09
  9
$DIMJUST
 70
     0
  9
$DIMSD1
 70
     0
  9
$DIMSD2
 70
     0
  9
$DIMTOLJ
 70
     1
  9
$DIMTZIN
 70
     0
  9
$DIMALTZ
 70
     0
  9
$DIMALTTZ
 70
     0
  9
$DIMUPT
 70
     0
  9
$DIMDEC
 70
     4
  9
$DIMTDEC
 70
     4
  9
$DIMALTU
 70
     2
  9
$DIMALTTD
 70
     2
  9
$DIMTXSTY
  7
STANDARD
  9
$DIMAUNIT
 70
     0
  9
$DIMADEC
 70
     0
  9
$DIMALTRND
 40
0.0
  9
$DIMAZIN
 70
     0
  9
$DIMDSEP
 70
    46
  9
$DIMATFIT
 70
     3
  9
$DIMFRAC
 70
     0
  9
$DIMLDRBLK
  1

  9
$DIMLUNIT
 70
     2
  9
$DIMLWD
 70
    -2
  9
$DIMLWE
 70
    -2
  9
$DIMTMOVE
 70
     0
  9
$LUNITS
 70
     2
  9
$LUPREC
 70
     4
  9
$SKETCHINC
 40
0.1
  9
$FILLETRAD
 40
0.0
  9
$AUNITS
 70
     0
  9
$AUPREC
 70
     0
  9
$MENU
  1
.
  9
$ELEVATION
 40
0.0
  9
$PELEVATION
 40
0.0
  9
$THICKNESS
 40
0.0
  9
$LIMCHECK
 70
     0
  9
$CHAMFERA
 40
0.0
  9
$CHAMFERB
 40
0.0
  9
$CHAMFERC
 40
0.0
  9
$CHAMFERD
 40
0.0
  9
$SKPOLY
 70
     0
  9
$TDCREATE
 40
2452153.717563935
  9
$TDUCREATE
 40
2452153.342563935
  9
$TDUPDATE
 40
2452719.604875809
  9
$TDUUPDATE
 40
2452719.229875810
  9
$TDINDWG
 40
0.0018052431
  9
$TDUSRTIMER
 40
0.0018020023
  9
$USRTIMER
 70
     1
  9
$ANGBASE
 50
0.0
  9
$ANGDIR
 70
     0
  9
$PDMODE
 70
     0
  9
$PDSIZE
 40
0.0
  9
$PLINEWID
 40
0.0
  9
$SPLFRAME
 70
     0
  9
$SPLINETYPE
 70
     6
  9
$SPLINESEGS
 70
     8
  9
$HANDSEED
  5
439
  9
$SURFTAB1
 70
     6
  9
$SURFTAB2
 70
     6
  9
$SURFTYPE
 70
     6
  9
$SURFU
 70
     6
  9
$SURFV
 70
     6
  9
$UCSBASE
  2

  9
$UCSNAME
  2

  9
$UCSORG
 10
0.0
 20
0.0
 30
0.0
  9
$UCSXDIR
 10
1.0
 20
0.0
 30
0.0
  9
$UCSYDIR
 10
0.0
 20
1.0
 30
0.0
  9
$UCSORTHOREF
  2

  9
$UCSORTHOVIEW
 70
     0
  9
$UCSORGTOP
 10
0.0
 20
0.0
 30
0.0
  9
$UCSORGBOTTOM
 10
0.0
 20
0.0
 30
0.0
  9
$UCSORGLEFT
 10
0.0
 20
0.0
 30
0.0
  9
$UCSORGRIGHT
 10
0.0
 20
0.0
 30
0.0
  9
$UCSORGFRONT
 10
0.0
 20
0.0
 30
0.0
  9
$UCSORGBACK
 10
0.0
 20
0.0
 30
0.0
  9
$PUCSBASE
  2

  9
$PUCSNAME
  2

  9
$PUCSORG
 10
0.0
 20
0.0
 30
0.0
  9
$PUCSXDIR
 10
1.0
 20
0.0
 30
0.0
  9
$PUCSYDIR
 10
0.0
 20
1.0
 30
0.0
  9
$PUCSORTHOREF
  2

  9
$PUCSORTHOVIEW
 70
     0
  9
$PUCSORGTOP
 10
0.0
 20
0.0
 30
0.0
  9
$PUCSORGBOTTOM
 10
0.0
 20
0.0
 30
0.0
  9
$PUCSORGLEFT
 10
0.0
 20
0.0
 30
0.0
  9
$PUCSORGRIGHT
 10
0.0
 20
0.0
 30
0.0
  9
$PUCSORGFRONT
 10
0.0
 20
0.0
 30
0.0
  9
$PUCSORGBACK
 10
0.0
 20
0.0
 30
0.0
  9
$USERI1
 70
     0
  9
$USERI2
 70
     0
  9
$USERI3
 70
     0
  9
$USERI4
 70
     0
  9
$USERI5
 70
     0
  9
$USERR1
 40
0.0
  9
$USERR2
 40
0.0
  9
$USERR3
 40
0.0
  9
$USERR4
 40
0.0
  9
$USERR5
 40
0.0
  9
$WORLDVIEW
 70
     1
  9
$SHADEDGE
 70
     3
  9
$SHADEDIF
 70
    70
  9
$TILEMODE
 70
     1
  9
$MAXACTVP
 70
    64
  9
$PINSBASE
 10
0.0
 20
0.0
 30
0.0
  9
$PLIMCHECK
 70
     0
  9
$PEXTMIN
 10
1.000000000000000E+20
 20
1.000000000000000E+20
 30
1.000000000000000E+20
  9
$PEXTMAX
 10
-1.000000000000000E+20
 20
-1.000000000000000E+20
 30
-1.000000000000000E+20
  9
$PLIMMIN
 10
0.0
 20
0.0
  9
$PLIMMAX
 10
12.0
 20
9.0
  9
$UNITMODE
 70
     0
  9
$VISRETAIN
 70
     1
  9
$PLINEGEN
 70
     0
  9
$PSLTSCALE
 70
     1
  9
$TREEDEPTH
 70
  3020
  9
$CMLSTYLE
  2
Standard
  9
$CMLJUST
 70
     0
  9
$CMLSCALE
 40
1.0
  9
$PROXYGRAPHICS
 70
     1
  9
$MEASUREMENT
 70
     0
  9
$CELWEIGHT
370
    -1
  9
$ENDCAPS
280
     0
  9
$JOINSTYLE
280
     0
  9
$LWDISPLAY
290
     0
  9
$INSUNITS
 70
     0
  9
$HYPERLINKBASE
  1

  9
$STYLESHEET
  1

  9
$XEDIT
290
     1
  9
$CEPSNTYPE
380
     0
  9
$PSTYLEMODE
290
     1
  9
$FINGERPRINTGUID
  2
{F3B46BC0-5322-11D7-9C19-0040267F10D4}
  9
$VERSIONGUID
  2
{DAAD948C-5ADD-11D7-9C19-0040267F10D4}
  9
$EXTNAMES
290
     1
  9
$PSVPSCALE
 40
0.0
  9
$OLESTARTUP
290
     0
  0
ENDSEC
  0
SECTION
  2
CLASSES
  0
CLASS
  1
ACDBDICTIONARYWDFLT
  2
AcDbDictionaryWithDefault
  3
AutoCAD 2000
 90
        0
280
     0
281
     0
  0
CLASS
  1
ACDBPLACEHOLDER
  2
AcDbPlaceHolder
  3
AutoCAD 2000
 90
        0
280
     0
281
     0
  0
CLASS
  1
LAYOUT
  2
AcDbLayout
  3
AutoCAD 2000
 90
        0
280
     0
281
     0
  0
ENDSEC
  0
SECTION
  2
TABLES
  0
TABLE
  2
VPORT
  5
21F
330
0
100
AcDbSymbolTable
 70
     3
  0
VPORT
  5
438
330
21F
100
AcDbSymbolTableRecord
100
AcDbViewportTableRecord
  2
*Active
 70
     0
 10
0.0
 20
0.0
 11
1.0
 21
1.0
 12
212.4598608015132
 22
92.57140298846312
 13
0.0
 23
0.0
 14
1.0
 24
1.0
 15
0.0
 25
0.0
 16
0.0
 26
0.0
 36
1.0
 17
0.0
 27
0.0
 37
0.0
 40
189.8592481760859
 41
2.210374639769452
 42
50.0
 43
0.0
 44
0.0
 50
0.0
 51
0.0
 71
     0
 72
   100
 73
     1
 74
     1
 75
     0
 76
     0
 77
     0
 78
     0
281
     0
 65
     1
110
0.0
120
0.0
130
0.0
111
1.0
121
0.0
131
0.0
112
0.0
122
1.0
132
0.0
 79
     0
146
0.0
  0
ENDTAB
  0
TABLE
  2
LTYPE
  5
21C
330
0
100
AcDbSymbolTable
 70
     3
  0
LTYPE
  5
22A
330
21C
100
AcDbSymbolTableRecord
100
AcDbLinetypeTableRecord
  2
ByBlock
 70
     0
  3

 72
    65
 73
     0
 40
0.0
  0
LTYPE
  5
22B
330
21C
100
AcDbSymbolTableRecord
100
AcDbLinetypeTableRecord
  2
ByLayer
 70
     0
  3

 72
    65
 73
     0
 40
0.0
  0
LTYPE
  5
22C
330
21C
100
AcDbSymbolTableRecord
100
AcDbLinetypeTableRecord
  2
CONTINUOUS
 70
     0
  3
Solid line
 72
    65
 73
     0
 40
0.0
  0
LTYPE
  5
23A
330
21C
100
AcDbSymbolTableRecord
100
AcDbLinetypeTableRecord
  2
LTYPE1
 70
     0
  3
HIDDEN
 72
    65
 73
     2
 40
2.0
 49
1.199999999999999
 74
     0
 49
-0.8
 74
     0
  0
LTYPE
  5
23B
330
21C
100
AcDbSymbolTableRecord
100
AcDbLinetypeTableRecord
  2
LTYPE2
 70
     0
  3
CENTER
 72
    65
 73
     4
 40
10.0
 49
7.0
 74
     0
 49
-1.0
 74
     0
 49
1.0
 74
     0
 49
-1.0
 74
     0
  0
ENDTAB
  0
TABLE
  2
LAYER
  5
219
330
0
100
AcDbSymbolTable
 70
   128
  0
LAYER
  5
227
330
219
100
AcDbSymbolTableRecord
100
AcDbLayerTableRecord
  2
0
 70
     0
 62
     7
  6
CONTINUOUS
370
    -3
390
226
  0
LAYER
  5
23C
330
219
100
AcDbSymbolTableRecord
100
AcDbLayerTableRecord
  2
1
 70
     0
 62
     7
  6
CONTINUOUS
370
    -3
390
226
  0
LAYER
  5
23D
330
219
100
AcDbSymbolTableRecord
100
AcDbLayerTableRecord
  2
2
 70
     0
 62
     7
  6
CONTINUOUS
370
    -3
390
226
  0
LAYER
  5
23E
330
219
100
AcDbSymbolTableRecord
100
AcDbLayerTableRecord
  2
3
 70
     0
 62
     7
  6
CONTINUOUS
370
    -3
390
226
  0
LAYER
  5
23F
330
219
100
AcDbSymbolTableRecord
100
AcDbLayerTableRecord
  2
4
 70
     0
 62
     7
  6
CONTINUOUS
370
    -3
390
226
  0
LAYER
  5
240
330
219
100
AcDbSymbolTableRecord
100
AcDbLayerTableRecord
  2
5
 70
     0
 62
     7
  6
CONTINUOUS
370
    -3
390
226
  0
LAYER
  5
241
330
219
100
AcDbSymbolTableRecord
100
AcDbLayerTableRecord
  2
6
 70
     0
 62
     7
  6
CONTINUOUS
370
    -3
390
226
  0
LAYER
  5
242
330
219
100
AcDbSymbolTableRecord
100
AcDbLayerTableRecord
  2
7
 70
     0
 62
     7
  6
CONTINUOUS
370
    -3
390
226
  0
LAYER
  5
243
330
219
100
AcDbSymbolTableRecord
100
AcDbLayerTableRecord
  2
8
 70
     0
 62
     7
  6
CONTINUOUS
370
    -3
390
226
  0
LAYER
  5
244
330
219
100
AcDbSymbolTableRecord
100
AcDbLayerTableRecord
  2
9
 70
     0
 62
     7
  6
CONTINUOUS
370
    -3
390
226
  0
LAYER
  5
245
330
219
100
AcDbSymbolTableRecord
100
AcDbLayerTableRecord
  2
10
 70
     0
 62
     7
  6
CONTINUOUS
370
    -3
390
226
  0
LAYER
  5
246
330
219
100
AcDbSymbolTableRecord
100
AcDbLayerTableRecord
  2
11
 70
     0
 62
     7
  6
CONTINUOUS
370
    -3
390
226
  0
LAYER
  5
247
330
219
100
AcDbSymbolTableRecord
100
AcDbLayerTableRecord
  2
12
 70
     0
 62
     7
  6
CONTINUOUS
370
    -3
390
226
  0
LAYER
  5
248
330
219
100
AcDbSymbolTableRecord
100
AcDbLayerTableRecord
  2
13
 70
     0
 62
     7
  6
CONTINUOUS
370
    -3
390
226
  0
LAYER
  5
249
330
219
100
AcDbSymbolTableRecord
100
AcDbLayerTableRecord
  2
14
 70
     0
 62
     7
  6
CONTINUOUS
370
    -3
390
226
  0
LAYER
  5
24A
330
219
100
AcDbSymbolTableRecord
100
AcDbLayerTableRecord
  2
15
 70
     0
 62
     7
  6
CONTINUOUS
370
    -3
390
226
  0
LAYER
  5
24B
330
219
100
AcDbSymbolTableRecord
100
AcDbLayerTableRecord
  2
16
 70
     0
 62
     7
  6
CONTINUOUS
370
    -3
390
226
  0
LAYER
  5
24C
330
219
100
AcDbSymbolTableRecord
100
AcDbLayerTableRecord
  2
17
 70
     0
 62
     7
  6
CONTINUOUS
370
    -3
390
226
  0
LAYER
  5
24D
330
219
100
AcDbSymbolTableRecord
100
AcDbLayerTableRecord
  2
18
 70
     0
 62
     7
  6
CONTINUOUS
370
    -3
390
226
  0
LAYER
  5
24E
330
219
100
AcDbSymbolTableRecord
100
AcDbLayerTableRecord
  2
19
 70
     0
 62
     7
  6
CONTINUOUS
370
    -3
390
226
  0
LAYER
  5
24F
330
219
100
AcDbSymbolTableRecord
100
AcDbLayerTableRecord
  2
20
 70
     0
 62
     7
  6
CONTINUOUS
370
    -3
390
226
  0
LAYER
  5
250
330
219
100
AcDbSymbolTableRecord
100
AcDbLayerTableRecord
  2
21
 70
     0
 62
     7
  6
CONTINUOUS
370
    -3
390
226
  0
LAYER
  5
251
330
219
100
AcDbSymbolTableRecord
100
AcDbLayerTableRecord
  2
22
 70
     0
 62
     7
  6
CONTINUOUS
370
    -3
390
226
  0
LAYER
  5
252
330
219
100
AcDbSymbolTableRecord
100
AcDbLayerTableRecord
  2
23
 70
     0
 62
     7
  6
CONTINUOUS
370
    -3
390
226
  0
LAYER
  5
253
330
219
100
AcDbSymbolTableRecord
100
AcDbLayerTableRecord
  2
24
 70
     0
 62
     7
  6
CONTINUOUS
370
    -3
390
226
  0
LAYER
  5
254
330
219
100
AcDbSymbolTableRecord
100
AcDbLayerTableRecord
  2
25
 70
     0
 62
     7
  6
CONTINUOUS
370
    -3
390
226
  0
LAYER
  5
255
330
219
100
AcDbSymbolTableRecord
100
AcDbLayerTableRecord
  2
26
 70
     0
 62
     7
  6
CONTINUOUS
370
    -3
390
226
  0
LAYER
  5
256
330
219
100
AcDbSymbolTableRecord
100
AcDbLayerTableRecord
  2
27
 70
     0
 62
     7
  6
CONTINUOUS
370
    -3
390
226
  0
LAYER
  5
257
330
219
100
AcDbSymbolTableRecord
100
AcDbLayerTableRecord
  2
28
 70
     0
 62
     7
  6
CONTINUOUS
370
    -3
390
226
  0
LAYER
  5
258
330
219
100
AcDbSymbolTableRecord
100
AcDbLayerTableRecord
  2
29
 70
     0
 62
     7
  6
CONTINUOUS
370
    -3
390
226
  0
LAYER
  5
259
330
219
100
AcDbSymbolTableRecord
100
AcDbLayerTableRecord
  2
30
 70
     0
 62
     7
  6
CONTINUOUS
370
    -3
390
226
  0
LAYER
  5
25A
330
219
100
AcDbSymbolTableRecord
100
AcDbLayerTableRecord
  2
31
 70
     0
 62
     7
  6
CONTINUOUS
370
    -3
390
226
  0
LAYER
  5
25B
330
219
100
AcDbSymbolTableRecord
100
AcDbLayerTableRecord
  2
32
 70
     0
 62
     7
  6
CONTINUOUS
370
    -3
390
226
  0
LAYER
  5
25C
330
219
100
AcDbSymbolTableRecord
100
AcDbLayerTableRecord
  2
33
 70
     0
 62
     7
  6
CONTINUOUS
370
    -3
390
226
  0
LAYER
  5
25D
330
219
100
AcDbSymbolTableRecord
100
AcDbLayerTableRecord
  2
34
 70
     0
 62
     7
  6
CONTINUOUS
370
    -3
390
226
  0
LAYER
  5
25E
330
219
100
AcDbSymbolTableRecord
100
AcDbLayerTableRecord
  2
35
 70
     0
 62
     7
  6
CONTINUOUS
370
    -3
390
226
  0
LAYER
  5
25F
330
219
100
AcDbSymbolTableRecord
100
AcDbLayerTableRecord
  2
36
 70
     0
 62
     7
  6
CONTINUOUS
370
    -3
390
226
  0
LAYER
  5
260
330
219
100
AcDbSymbolTableRecord
100
AcDbLayerTableRecord
  2
37
 70
     0
 62
     7
  6
CONTINUOUS
370
    -3
390
226
  0
LAYER
  5
261
330
219
100
AcDbSymbolTableRecord
100
AcDbLayerTableRecord
  2
38
 70
     0
 62
     7
  6
CONTINUOUS
370
    -3
390
226
  0
LAYER
  5
262
330
219
100
AcDbSymbolTableRecord
100
AcDbLayerTableRecord
  2
39
 70
     0
 62
     7
  6
CONTINUOUS
370
    -3
390
226
  0
LAYER
  5
263
330
219
100
AcDbSymbolTableRecord
100
AcDbLayerTableRecord
  2
40
 70
     0
 62
     7
  6
CONTINUOUS
370
    -3
390
226
  0
LAYER
  5
264
330
219
100
AcDbSymbolTableRecord
100
AcDbLayerTableRecord
  2
41
 70
     0
 62
     7
  6
CONTINUOUS
370
    -3
390
226
  0
LAYER
  5
265
330
219
100
AcDbSymbolTableRecord
100
AcDbLayerTableRecord
  2
42
 70
     0
 62
     7
  6
CONTINUOUS
370
    -3
390
226
  0
LAYER
  5
266
330
219
100
AcDbSymbolTableRecord
100
AcDbLayerTableRecord
  2
43
 70
     0
 62
     7
  6
CONTINUOUS
370
    -3
390
226
  0
LAYER
  5
267
330
219
100
AcDbSymbolTableRecord
100
AcDbLayerTableRecord
  2
44
 70
     0
 62
     7
  6
CONTINUOUS
370
    -3
390
226
  0
LAYER
  5
268
330
219
100
AcDbSymbolTableRecord
100
AcDbLayerTableRecord
  2
45
 70
     0
 62
     7
  6
CONTINUOUS
370
    -3
390
226
  0
LAYER
  5
269
330
219
100
AcDbSymbolTableRecord
100
AcDbLayerTableRecord
  2
46
 70
     0
 62
     7
  6
CONTINUOUS
370
    -3
390
226
  0
LAYER
  5
26A
330
219
100
AcDbSymbolTableRecord
100
AcDbLayerTableRecord
  2
47
 70
     0
 62
     7
  6
CONTINUOUS
370
    -3
390
226
  0
LAYER
  5
26B
330
219
100
AcDbSymbolTableRecord
100
AcDbLayerTableRecord
  2
48
 70
     0
 62
     7
  6
CONTINUOUS
370
    -3
390
226
  0
LAYER
  5
26C
330
219
100
AcDbSymbolTableRecord
100
AcDbLayerTableRecord
  2
49
 70
     0
 62
     7
  6
CONTINUOUS
370
    -3
390
226
  0
LAYER
  5
26D
330
219
100
AcDbSymbolTableRecord
100
AcDbLayerTableRecord
  2
50
 70
     0
 62
     7
  6
CONTINUOUS
370
    -3
390
226
  0
LAYER
  5
26E
330
219
100
AcDbSymbolTableRecord
100
AcDbLayerTableRecord
  2
51
 70
     0
 62
     7
  6
CONTINUOUS
370
    -3
390
226
  0
LAYER
  5
26F
330
219
100
AcDbSymbolTableRecord
100
AcDbLayerTableRecord
  2
52
 70
     0
 62
     7
  6
CONTINUOUS
370
    -3
390
226
  0
LAYER
  5
270
330
219
100
AcDbSymbolTableRecord
100
AcDbLayerTableRecord
  2
53
 70
     0
 62
     7
  6
CONTINUOUS
370
    -3
390
226
  0
LAYER
  5
271
330
219
100
AcDbSymbolTableRecord
100
AcDbLayerTableRecord
  2
54
 70
     0
 62
     7
  6
CONTINUOUS
370
    -3
390
226
  0
LAYER
  5
272
330
219
100
AcDbSymbolTableRecord
100
AcDbLayerTableRecord
  2
55
 70
     0
 62
     7
  6
CONTINUOUS
370
    -3
390
226
  0
LAYER
  5
273
330
219
100
AcDbSymbolTableRecord
100
AcDbLayerTableRecord
  2
56
 70
     0
 62
     7
  6
CONTINUOUS
370
    -3
390
226
  0
LAYER
  5
274
330
219
100
AcDbSymbolTableRecord
100
AcDbLayerTableRecord
  2
57
 70
     0
 62
     7
  6
CONTINUOUS
370
    -3
390
226
  0
LAYER
  5
275
330
219
100
AcDbSymbolTableRecord
100
AcDbLayerTableRecord
  2
58
 70
     0
 62
     7
  6
CONTINUOUS
370
    -3
390
226
  0
LAYER
  5
276
330
219
100
AcDbSymbolTableRecord
100
AcDbLayerTableRecord
  2
59
 70
     0
 62
     7
  6
CONTINUOUS
370
    -3
390
226
  0
LAYER
  5
277
330
219
100
AcDbSymbolTableRecord
100
AcDbLayerTableRecord
  2
60
 70
     0
 62
     7
  6
CONTINUOUS
370
    -3
390
226
  0
LAYER
  5
278
330
219
100
AcDbSymbolTableRecord
100
AcDbLayerTableRecord
  2
61
 70
     0
 62
     7
  6
CONTINUOUS
370
    -3
390
226
  0
LAYER
  5
279
330
219
100
AcDbSymbolTableRecord
100
AcDbLayerTableRecord
  2
62
 70
     0
 62
     7
  6
CONTINUOUS
370
    -3
390
226
  0
LAYER
  5
27A
330
219
100
AcDbSymbolTableRecord
100
AcDbLayerTableRecord
  2
63
 70
     0
 62
     7
  6
CONTINUOUS
370
    -3
390
226
  0
LAYER
  5
27B
330
219
100
AcDbSymbolTableRecord
100
AcDbLayerTableRecord
  2
64
 70
     0
 62
     7
  6
CONTINUOUS
370
    -3
390
226
  0
LAYER
  5
27C
330
219
100
AcDbSymbolTableRecord
100
AcDbLayerTableRecord
  2
65
 70
     0
 62
     7
  6
CONTINUOUS
370
    -3
390
226
  0
LAYER
  5
27D
330
219
100
AcDbSymbolTableRecord
100
AcDbLayerTableRecord
  2
66
 70
     0
 62
     7
  6
CONTINUOUS
370
    -3
390
226
  0
LAYER
  5
27E
330
219
100
AcDbSymbolTableRecord
100
AcDbLayerTableRecord
  2
67
 70
     0
 62
     7
  6
CONTINUOUS
370
    -3
390
226
  0
LAYER
  5
27F
330
219
100
AcDbSymbolTableRecord
100
AcDbLayerTableRecord
  2
68
 70
     0
 62
     7
  6
CONTINUOUS
370
    -3
390
226
  0
LAYER
  5
280
330
219
100
AcDbSymbolTableRecord
100
AcDbLayerTableRecord
  2
69
 70
     0
 62
     7
  6
CONTINUOUS
370
    -3
390
226
  0
LAYER
  5
281
330
219
100
AcDbSymbolTableRecord
100
AcDbLayerTableRecord
  2
70
 70
     0
 62
     7
  6
CONTINUOUS
370
    -3
390
226
  0
LAYER
  5
282
330
219
100
AcDbSymbolTableRecord
100
AcDbLayerTableRecord
  2
71
 70
     0
 62
     7
  6
CONTINUOUS
370
    -3
390
226
  0
LAYER
  5
283
330
219
100
AcDbSymbolTableRecord
100
AcDbLayerTableRecord
  2
72
 70
     0
 62
     7
  6
CONTINUOUS
370
    -3
390
226
  0
LAYER
  5
284
330
219
100
AcDbSymbolTableRecord
100
AcDbLayerTableRecord
  2
73
 70
     0
 62
     7
  6
CONTINUOUS
370
    -3
390
226
  0
LAYER
  5
285
330
219
100
AcDbSymbolTableRecord
100
AcDbLayerTableRecord
  2
74
 70
     0
 62
     7
  6
CONTINUOUS
370
    -3
390
226
  0
LAYER
  5
286
330
219
100
AcDbSymbolTableRecord
100
AcDbLayerTableRecord
  2
75
 70
     0
 62
     7
  6
CONTINUOUS
370
    -3
390
226
  0
LAYER
  5
287
330
219
100
AcDbSymbolTableRecord
100
AcDbLayerTableRecord
  2
76
 70
     0
 62
     7
  6
CONTINUOUS
370
    -3
390
226
  0
LAYER
  5
288
330
219
100
AcDbSymbolTableRecord
100
AcDbLayerTableRecord
  2
77
 70
     0
 62
     7
  6
CONTINUOUS
370
    -3
390
226
  0
LAYER
  5
289
330
219
100
AcDbSymbolTableRecord
100
AcDbLayerTableRecord
  2
78
 70
     0
 62
     7
  6
CONTINUOUS
370
    -3
390
226
  0
LAYER
  5
28A
330
219
100
AcDbSymbolTableRecord
100
AcDbLayerTableRecord
  2
79
 70
     0
 62
     7
  6
CONTINUOUS
370
    -3
390
226
  0
LAYER
  5
28B
330
219
100
AcDbSymbolTableRecord
100
AcDbLayerTableRecord
  2
80
 70
     0
 62
     7
  6
CONTINUOUS
370
    -3
390
226
  0
LAYER
  5
28C
330
219
100
AcDbSymbolTableRecord
100
AcDbLayerTableRecord
  2
81
 70
     0
 62
     7
  6
CONTINUOUS
370
    -3
390
226
  0
LAYER
  5
28D
330
219
100
AcDbSymbolTableRecord
100
AcDbLayerTableRecord
  2
82
 70
     0
 62
     7
  6
CONTINUOUS
370
    -3
390
226
  0
LAYER
  5
28E
330
219
100
AcDbSymbolTableRecord
100
AcDbLayerTableRecord
  2
83
 70
     0
 62
     7
  6
CONTINUOUS
370
    -3
390
226
  0
LAYER
  5
28F
330
219
100
AcDbSymbolTableRecord
100
AcDbLayerTableRecord
  2
84
 70
     0
 62
     7
  6
CONTINUOUS
370
    -3
390
226
  0
LAYER
  5
290
330
219
100
AcDbSymbolTableRecord
100
AcDbLayerTableRecord
  2
85
 70
     0
 62
     7
  6
CONTINUOUS
370
    -3
390
226
  0
LAYER
  5
291
330
219
100
AcDbSymbolTableRecord
100
AcDbLayerTableRecord
  2
86
 70
     0
 62
     7
  6
CONTINUOUS
370
    -3
390
226
  0
LAYER
  5
292
330
219
100
AcDbSymbolTableRecord
100
AcDbLayerTableRecord
  2
87
 70
     0
 62
     7
  6
CONTINUOUS
370
    -3
390
226
  0
LAYER
  5
293
330
219
100
AcDbSymbolTableRecord
100
AcDbLayerTableRecord
  2
88
 70
     0
 62
     7
  6
CONTINUOUS
370
    -3
390
226
  0
LAYER
  5
294
330
219
100
AcDbSymbolTableRecord
100
AcDbLayerTableRecord
  2
89
 70
     0
 62
     7
  6
CONTINUOUS
370
    -3
390
226
  0
LAYER
  5
295
330
219
100
AcDbSymbolTableRecord
100
AcDbLayerTableRecord
  2
90
 70
     0
 62
     7
  6
CONTINUOUS
370
    -3
390
226
  0
LAYER
  5
296
330
219
100
AcDbSymbolTableRecord
100
AcDbLayerTableRecord
  2
91
 70
     0
 62
     7
  6
CONTINUOUS
370
    -3
390
226
  0
LAYER
  5
297
330
219
100
AcDbSymbolTableRecord
100
AcDbLayerTableRecord
  2
92
 70
     0
 62
     7
  6
CONTINUOUS
370
    -3
390
226
  0
LAYER
  5
298
330
219
100
AcDbSymbolTableRecord
100
AcDbLayerTableRecord
  2
93
 70
     0
 62
     7
  6
CONTINUOUS
370
    -3
390
226
  0
LAYER
  5
299
330
219
100
AcDbSymbolTableRecord
100
AcDbLayerTableRecord
  2
94
 70
     0
 62
     7
  6
CONTINUOUS
370
    -3
390
226
  0
LAYER
  5
29A
330
219
100
AcDbSymbolTableRecord
100
AcDbLayerTableRecord
  2
95
 70
     0
 62
     7
  6
CONTINUOUS
370
    -3
390
226
  0
LAYER
  5
29B
330
219
100
AcDbSymbolTableRecord
100
AcDbLayerTableRecord
  2
96
 70
     0
 62
     7
  6
CONTINUOUS
370
    -3
390
226
  0
LAYER
  5
29C
330
219
100
AcDbSymbolTableRecord
100
AcDbLayerTableRecord
  2
97
 70
     0
 62
     7
  6
CONTINUOUS
370
    -3
390
226
  0
LAYER
  5
29D
330
219
100
AcDbSymbolTableRecord
100
AcDbLayerTableRecord
  2
98
 70
     0
 62
     7
  6
CONTINUOUS
370
    -3
390
226
  0
LAYER
  5
29E
330
219
100
AcDbSymbolTableRecord
100
AcDbLayerTableRecord
  2
99
 70
     0
 62
     7
  6
CONTINUOUS
370
    -3
390
226
  0
LAYER
  5
29F
330
219
100
AcDbSymbolTableRecord
100
AcDbLayerTableRecord
  2
100
 70
     0
 62
     7
  6
CONTINUOUS
370
    -3
390
226
  0
LAYER
  5
2A0
330
219
100
AcDbSymbolTableRecord
100
AcDbLayerTableRecord
  2
101
 70
     0
 62
     7
  6
CONTINUOUS
370
    -3
390
226
  0
LAYER
  5
2A1
330
219
100
AcDbSymbolTableRecord
100
AcDbLayerTableRecord
  2
102
 70
     0
 62
     7
  6
CONTINUOUS
370
    -3
390
226
  0
LAYER
  5
2A2
330
219
100
AcDbSymbolTableRecord
100
AcDbLayerTableRecord
  2
103
 70
     0
 62
     7
  6
CONTINUOUS
370
    -3
390
226
  0
LAYER
  5
2A3
330
219
100
AcDbSymbolTableRecord
100
AcDbLayerTableRecord
  2
104
 70
     0
 62
     7
  6
CONTINUOUS
370
    -3
390
226
  0
LAYER
  5
2A4
330
219
100
AcDbSymbolTableRecord
100
AcDbLayerTableRecord
  2
105
 70
     0
 62
     7
  6
CONTINUOUS
370
    -3
390
226
  0
LAYER
  5
2A5
330
219
100
AcDbSymbolTableRecord
100
AcDbLayerTableRecord
  2
106
 70
     0
 62
     7
  6
CONTINUOUS
370
    -3
390
226
  0
LAYER
  5
2A6
330
219
100
AcDbSymbolTableRecord
100
AcDbLayerTableRecord
  2
107
 70
     0
 62
     7
  6
CONTINUOUS
370
    -3
390
226
  0
LAYER
  5
2A7
330
219
100
AcDbSymbolTableRecord
100
AcDbLayerTableRecord
  2
108
 70
     0
 62
     7
  6
CONTINUOUS
370
    -3
390
226
  0
LAYER
  5
2A8
330
219
100
AcDbSymbolTableRecord
100
AcDbLayerTableRecord
  2
109
 70
     0
 62
     7
  6
CONTINUOUS
370
    -3
390
226
  0
LAYER
  5
2A9
330
219
100
AcDbSymbolTableRecord
100
AcDbLayerTableRecord
  2
110
 70
     0
 62
     7
  6
CONTINUOUS
370
    -3
390
226
  0
LAYER
  5
2AA
330
219
100
AcDbSymbolTableRecord
100
AcDbLayerTableRecord
  2
111
 70
     0
 62
     7
  6
CONTINUOUS
370
    -3
390
226
  0
LAYER
  5
2AB
330
219
100
AcDbSymbolTableRecord
100
AcDbLayerTableRecord
  2
112
 70
     0
 62
     7
  6
CONTINUOUS
370
    -3
390
226
  0
LAYER
  5
2AC
330
219
100
AcDbSymbolTableRecord
100
AcDbLayerTableRecord
  2
113
 70
     0
 62
     7
  6
CONTINUOUS
370
    -3
390
226
  0
LAYER
  5
2AD
330
219
100
AcDbSymbolTableRecord
100
AcDbLayerTableRecord
  2
114
 70
     0
 62
     7
  6
CONTINUOUS
370
    -3
390
226
  0
LAYER
  5
2AE
330
219
100
AcDbSymbolTableRecord
100
AcDbLayerTableRecord
  2
115
 70
     0
 62
     7
  6
CONTINUOUS
370
    -3
390
226
  0
LAYER
  5
2AF
330
219
100
AcDbSymbolTableRecord
100
AcDbLayerTableRecord
  2
116
 70
     0
 62
     7
  6
CONTINUOUS
370
    -3
390
226
  0
LAYER
  5
2B0
330
219
100
AcDbSymbolTableRecord
100
AcDbLayerTableRecord
  2
117
 70
     0
 62
     7
  6
CONTINUOUS
370
    -3
390
226
  0
LAYER
  5
2B1
330
219
100
AcDbSymbolTableRecord
100
AcDbLayerTableRecord
  2
118
 70
     0
 62
     7
  6
CONTINUOUS
370
    -3
390
226
  0
LAYER
  5
2B2
330
219
100
AcDbSymbolTableRecord
100
AcDbLayerTableRecord
  2
119
 70
     0
 62
     7
  6
CONTINUOUS
370
    -3
390
226
  0
LAYER
  5
2B3
330
219
100
AcDbSymbolTableRecord
100
AcDbLayerTableRecord
  2
120
 70
     0
 62
     7
  6
CONTINUOUS
370
    -3
390
226
  0
LAYER
  5
2B4
330
219
100
AcDbSymbolTableRecord
100
AcDbLayerTableRecord
  2
121
 70
     0
 62
     7
  6
CONTINUOUS
370
    -3
390
226
  0
LAYER
  5
2B5
330
219
100
AcDbSymbolTableRecord
100
AcDbLayerTableRecord
  2
122
 70
     0
 62
     7
  6
CONTINUOUS
370
    -3
390
226
  0
LAYER
  5
2B6
330
219
100
AcDbSymbolTableRecord
100
AcDbLayerTableRecord
  2
123
 70
     0
 62
     7
  6
CONTINUOUS
370
    -3
390
226
  0
LAYER
  5
2B7
330
219
100
AcDbSymbolTableRecord
100
AcDbLayerTableRecord
  2
124
 70
     0
 62
     7
  6
CONTINUOUS
370
    -3
390
226
  0
LAYER
  5
2B8
330
219
100
AcDbSymbolTableRecord
100
AcDbLayerTableRecord
  2
125
 70
     0
 62
     7
  6
CONTINUOUS
370
    -3
390
226
  0
LAYER
  5
2B9
330
219
100
AcDbSymbolTableRecord
100
AcDbLayerTableRecord
  2
126
 70
     0
 62
     7
  6
CONTINUOUS
370
    -3
390
226
  0
LAYER
  5
2BA
330
219
100
AcDbSymbolTableRecord
100
AcDbLayerTableRecord
  2
127
 70
     0
 62
     7
  6
CONTINUOUS
370
    -3
390
226
  0
ENDTAB
  0
TABLE
  2
STYLE
  5
21A
330
0
100
AcDbSymbolTable
 70
     7
  0
STYLE
  5
228
330
21A
100
AcDbSymbolTableRecord
100
AcDbTextStyleTableRecord
  2
STANDARD
 70
     0
 40
0.0
 41
1.0
 50
0.0
 71
     0
 42
0.2
  3
txt
  4

  0
STYLE
  5
2BB
330
21A
100
AcDbSymbolTableRecord
100
AcDbTextStyleTableRecord
  2
KANJI0
 70
     0
 40
3.0
 41
0.6
 50
0.0
 71
     0
 42
3.0
  3
txt
  4
bigfont
  0
STYLE
  5
2BC
330
21A
100
AcDbSymbolTableRecord
100
AcDbTextStyleTableRecord
  2
KANJI1
 70
     0
 40
3.0
 41
0.8
 50
0.0
 71
     0
 42
3.0
  3
txt
  4
bigfont
  0
STYLE
  5
2BD
330
21A
100
AcDbSymbolTableRecord
100
AcDbTextStyleTableRecord
  2
KANJI2
 70
     0
 40
3.0
 41
0.666666667
 50
0.0
 71
     0
 42
3.0
  3
txt
  4
bigfont
  0
STYLE
  5
2BE
330
21A
100
AcDbSymbolTableRecord
100
AcDbTextStyleTableRecord
  2
KANJI3
 70
     0
 40
3.0
 41
0.5833333330000002
 50
0.0
 71
     0
 42
3.0
  3
txt
  4
bigfont
  0
STYLE
  5
2BF
330
21A
100
AcDbSymbolTableRecord
100
AcDbTextStyleTableRecord
  2
KANJI4
 70
     0
 40
2.1
 41
0.9
 50
0.0
 71
     0
 42
2.1
  3
txt
  4
bigfont
  0
STYLE
  5
2C0
330
21A
100
AcDbSymbolTableRecord
100
AcDbTextStyleTableRecord
  2
KANJI5
 70
     0
 40
4.0
 41
0.9
 50
0.0
 71
     0
 42
4.0
  3
txt
  4
bigfont
  0
ENDTAB
  0
TABLE
  2
VIEW
  5
21D
330
0
100
AcDbSymbolTable
 70
     0
  0
ENDTAB
  0
TABLE
  2
UCS
  5
21E
330
0
100
AcDbSymbolTable
 70
     0
  0
ENDTAB
  0
TABLE
  2
APPID
  5
220
330
0
100
AcDbSymbolTable
 70
     1
  0
APPID
  5
229
330
220
100
AcDbSymbolTableRecord
100
AcDbRegAppTableRecord
  2
ACAD
 70
     0
  0
ENDTAB
  0
TABLE
  2
DIMSTYLE
  5
221
330
0
100
AcDbSymbolTable
 70
     1
100
AcDbDimStyleTable
 71
     0
  0
DIMSTYLE
105
2C1
330
221
100
AcDbSymbolTableRecord
100
AcDbDimStyleTableRecord
  2
STANDARD
 70
     0
279
     2
340
228
  0
ENDTAB
  0
TABLE
  2
BLOCK_RECORD
  5
218
330
0
100
AcDbSymbolTable
 70
     2
  0
BLOCK_RECORD
  5
235
330
218
100
AcDbSymbolTableRecord
100
AcDbBlockTableRecord
  2
*Model_Space
340
238
  0
BLOCK_RECORD
  5
231
330
218
100
AcDbSymbolTableRecord
100
AcDbBlockTableRecord
  2
*Paper_Space
340
234
  0
BLOCK_RECORD
  5
2C4
330
218
100
AcDbSymbolTableRecord
100
AcDbBlockTableRecord
  2
$MODEL_SPACE
340
0
  0
BLOCK_RECORD
  5
2C7
330
218
100
AcDbSymbolTableRecord
100
AcDbBlockTableRecord
  2
$PAPER_SPACE
340
0
  0
ENDTAB
  0
ENDSEC
  0
SECTION
  2
BLOCKS
  0
BLOCK
  5
236
330
235
100
AcDbEntity
  8
0
100
AcDbBlockBegin
  2
*Model_Space
 70
     0
 10
0.0
 20
0.0
 30
0.0
  3
*Model_Space
  1

  0
ENDBLK
  5
237
330
235
100
AcDbEntity
  8
0
100
AcDbBlockEnd
  0
BLOCK
  5
232
330
231
100
AcDbEntity
 67
     1
  8
0
100
AcDbBlockBegin
  2
*Paper_Space
 70
     0
 10
0.0
 20
0.0
 30
0.0
  3
*Paper_Space
  1

  0
ENDBLK
  5
233
330
231
100
AcDbEntity
 67
     1
  8
0
100
AcDbBlockEnd
  0
BLOCK
  5
2C5
330
2C4
100
AcDbEntity
  8
0
100
AcDbBlockBegin
  2
$MODEL_SPACE
 70
     0
 10
0.0
 20
0.0
 30
0.0
  3
$MODEL_SPACE
  1

  0
ENDBLK
  5
2C6
330
2C4
100
AcDbEntity
  8
0
100
AcDbBlockEnd
  0
BLOCK
  5
2C8
330
2C7
100
AcDbEntity
  8
0
100
AcDbBlockBegin
  2
$PAPER_SPACE
 70
     0
 10
0.0
 20
0.0
 30
0.0
  3
$PAPER_SPACE
  1

  0
ENDBLK
  5
2C9
330
2C7
100
AcDbEntity
  8
0
100
AcDbBlockEnd
  0
ENDSEC
  0
SECTION
  2
ENTITIES
  0
POINT
  5
2CA
330
235
100
AcDbEntity
  8
0
  6
Continuous
 62
     1
100
AcDbPoint
 10
1.269263905633295E+99
 20
-5.479536498971387E+72
 30
0.0
  0
POINT
  5
2CB
330
235
100
AcDbEntity
  8
0
  6
Continuous
 62
     1
100
AcDbPoint
 10
1.269263905633295E+99
 20
-5.479536498971387E+72
 30
0.0
  0
LINE
  5
2CC
330
235
100
AcDbEntity
  8
0
  6
Continuous
 62
     1
100
AcDbLine
 10
-5.941616374145985E+73
 20
0.0
 30
0.0
 11
-5.941616374145985E+73
 21
0.647047613
 31
0.0
  0
LINE
  5
2CD
330
235
100
AcDbEntity
  8
0
  6
Continuous
 62
     1
100
AcDbLine
 10
-5.941616374145985E+73
 20
0.0
 30
0.0
 11
-5.941616374145985E+73
 21
-0.647047613
 31
0.0
  0
POINT
  5
2CE
330
235
100
AcDbEntity
  8
1
  6
Continuous
 62
     1
100
AcDbPoint
 10
1.269263905633295E+99
 20
210.0
 30
0.0
  0
POINT
  5
2CF
330
235
100
AcDbEntity
  8
1
  6
Continuous
 62
     1
100
AcDbPoint
 10
1.269263905633295E+99
 20
210.0
 30
0.0
  0
POINT
  5
2D0
330
235
100
AcDbEntity
  8
1
  6
Continuous
 62
     1
100
AcDbPoint
 10
-5.941616374145985E+73
 20
210.0
 30
0.0
  0
POINT
  5
2D1
330
235
100
AcDbEntity
  8
1
  6
Continuous
 62
     1
100
AcDbPoint
 10
-5.941616374145985E+73
 20
210.0
 30
0.0
  0
POINT
  5
2D2
330
235
100
AcDbEntity
  8
1
  6
Continuous
 62
     1
100
AcDbPoint
 10
6.282985302827068E+99
 20
-1.269263905633295E+99
 30
0.0
  0
POINT
  5
2D3
330
235
100
AcDbEntity
  8
1
  6
Continuous
 62
     1
100
AcDbPoint
 10
6.282985302827068E+99
 20
-1.269263905633295E+99
 30
0.0
  0
POINT
  5
2D4
330
235
100
AcDbEntity
  8
1
  6
Continuous
 62
     1
100
AcDbPoint
 10
-2.941160477983472E+62
 20
5.941616374145985E+73
 30
0.0
  0
POINT
  5
2D5
330
235
100
AcDbEntity
  8
1
  6
Continuous
 62
     1
100
AcDbPoint
 10
-2.941160477983472E+62
 20
5.941616374145985E+73
 30
0.0
  0
POINT
  5
2D6
330
235
100
AcDbEntity
  8
1
  6
Continuous
 62
     1
100
AcDbPoint
 10
6.282985302827068E+99
 20
-1.269263905633295E+99
 30
0.0
  0
POINT
  5
2D7
330
235
100
AcDbEntity
  8
1
  6
Continuous
 62
     1
100
AcDbPoint
 10
6.282985302827068E+99
 20
-1.269263905633295E+99
 30
0.0
  0
POINT
  5
2D8
330
235
100
AcDbEntity
  8
1
  6
Continuous
 62
     1
100
AcDbPoint
 10
-2.941160477983472E+62
 20
5.941616374145985E+73
 30
0.0
  0
POINT
  5
2D9
330
235
100
AcDbEntity
  8
1
  6
Continuous
 62
     1
100
AcDbPoint
 10
-2.941160477983472E+62
 20
5.941616374145985E+73
 30
0.0
  0
POINT
  5
2DA
330
235
100
AcDbEntity
  8
1
  6
Continuous
 62
     1
100
AcDbPoint
 10
1.269263905633295E+99
 20
210.0
 30
0.0
  0
POINT
  5
2DB
330
235
100
AcDbEntity
  8
1
  6
Continuous
 62
     1
100
AcDbPoint
 10
1.269263905633295E+99
 20
210.0
 30
0.0
  0
POINT
  5
2DC
330
235
100
AcDbEntity
  8
1
  6
Continuous
 62
     1
100
AcDbPoint
 10
-5.941616374145985E+73
 20
210.0
 30
0.0
  0
POINT
  5
2DD
330
235
100
AcDbEntity
  8
1
  6
Continuous
 62
     1
100
AcDbPoint
 10
-5.941616374145985E+73
 20
210.0
 30
0.0
  0
POINT
  5
2DE
330
235
100
AcDbEntity
  8
1
  6
Continuous
 62
     1
100
AcDbPoint
 10
1.269263905633295E+99
 20
210.0
 30
0.0
  0
POINT
  5
2DF
330
235
100
AcDbEntity
  8
1
  6
Continuous
 62
     1
100
AcDbPoint
 10
1.269263905633295E+99
 20
210.0
 30
0.0
  0
POINT
  5
2E0
330
235
100
AcDbEntity
  8
1
  6
Continuous
 62
     1
100
AcDbPoint
 10
-5.941616374145985E+73
 20
210.0
 30
0.0
  0
POINT
  5
2E1
330
235
100
AcDbEntity
  8
1
  6
Continuous
 62
     1
100
AcDbPoint
 10
-5.941616374145985E+73
 20
210.0
 30
0.0
  0
LINE
  5
2E2
330
235
100
AcDbEntity
  8
0
  6
Continuous
 62
     1
100
AcDbLine
 10
87.0
 20
52.0
 30
0.0
 11
87.0
 21
32.0
 31
0.0
  0
LINE
  5
2E3
330
235
100
AcDbEntity
  8
0
  6
Continuous
 62
     1
100
AcDbLine
 10
87.0
 20
32.0
 30
0.0
 11
131.0
 21
32.0
 31
0.0
  0
LINE
  5
2E4
330
235
100
AcDbEntity
  8
0
  6
Continuous
 62
     1
100
AcDbLine
 10
131.0
 20
32.0
 30
0.0
 11
131.0
 21
52.0
 31
0.0
  0
LINE
  5
2E5
330
235
100
AcDbEntity
  8
0
  6
Continuous
 62
     1
100
AcDbLine
 10
131.0
 20
52.0
 30
0.0
 11
87.0
 21
52.0
 31
0.0
  0
ARC
  5
2E6
330
235
100
AcDbEntity
  8
0
  6
Continuous
 62
     1
100
AcDbCircle
 10
86.0
 20
53.0
 30
0.0
 40
1.0
100
AcDbArc
 50
90.0
 51
180.0
  0
LINE
  5
2E7
330
235
100
AcDbEntity
  8
0
  6
Continuous
 62
     1
100
AcDbLine
 10
85.0
 20
53.0
 30
0.0
 11
85.0
 21
31.0
 31
0.0
  0
ARC
  5
2E8
330
235
100
AcDbEntity
  8
0
  6
Continuous
 62
     1
100
AcDbCircle
 10
86.0
 20
31.0
 30
0.0
 40
1.0
100
AcDbArc
 50
180.0
 51
270.0
  0
LINE
  5
2E9
330
235
100
AcDbEntity
  8
0
  6
Continuous
 62
     1
100
AcDbLine
 10
86.0
 20
30.0
 30
0.0
 11
132.0
 21
30.0
 31
0.0
  0
ARC
  5
2EA
330
235
100
AcDbEntity
  8
0
  6
Continuous
 62
     1
100
AcDbCircle
 10
132.0
 20
31.0
 30
0.0
 40
1.0
100
AcDbArc
 50
270.0
 51
0.0
  0
LINE
  5
2EB
330
235
100
AcDbEntity
  8
0
  6
Continuous
 62
     1
100
AcDbLine
 10
132.0
 20
54.0
 30
0.0
 11
86.0
 21
54.0
 31
0.0
  0
LINE
  5
2EC
330
235
100
AcDbEntity
  8
0
  6
Continuous
 62
     1
100
AcDbLine
 10
133.0
 20
31.0
 30
0.0
 11
133.0
 21
53.0
 31
0.0
  0
ARC
  5
2ED
330
235
100
AcDbEntity
  8
0
  6
Continuous
 62
     1
100
AcDbCircle
 10
132.0
 20
53.0
 30
0.0
 40
1.0
100
AcDbArc
 50
0.0
 51
90.0
  0
LINE
  5
2EE
330
235
100
AcDbEntity
  8
0
  6
Continuous
 62
     1
100
AcDbLine
 10
85.0
 20
47.0
 30
0.0
 11
84.0
 21
47.0
 31
0.0
  0
LINE
  5
2EF
330
235
100
AcDbEntity
  8
0
  6
Continuous
 62
     1
100
AcDbLine
 10
84.0
 20
47.0
 30
0.0
 11
84.0
 21
37.0
 31
0.0
  0
LINE
  5
2F0
330
235
100
AcDbEntity
  8
0
  6
Continuous
 62
     1
100
AcDbLine
 10
84.0
 20
37.0
 30
0.0
 11
85.0
 21
37.0
 31
0.0
  0
LINE
  5
2F1
330
235
100
AcDbEntity
  8
0
  6
Continuous
 62
     1
100
AcDbLine
 10
133.0
 20
37.0
 30
0.0
 11
134.0
 21
37.0
 31
0.0
  0
LINE
  5
2F2
330
235
100
AcDbEntity
  8
0
  6
Continuous
 62
     1
100
AcDbLine
 10
134.0
 20
37.0
 30
0.0
 11
134.0
 21
47.0
 31
0.0
  0
LINE
  5
2F3
330
235
100
AcDbEntity
  8
0
  6
Continuous
 62
     1
100
AcDbLine
 10
134.0
 20
47.0
 30
0.0
 11
133.0
 21
47.0
 31
0.0
  0
LINE
  5
2F4
330
235
100
AcDbEntity
  8
0
  6
Continuous
 62
     1
100
AcDbLine
 10
133.0
 20
84.79999999999998
 30
0.0
 11
85.0
 21
84.79999999999998
 31
0.0
  0
LINE
  5
2F5
330
235
100
AcDbEntity
  8
0
  6
Continuous
 62
     1
100
AcDbLine
 10
85.0
 20
84.79999999999998
 30
0.0
 11
85.91707856799999
 21
80.398022873
 31
0.0
  0
ARC
  5
2F6
330
235
100
AcDbEntity
  8
0
  6
Continuous
 62
     1
100
AcDbCircle
 10
86.40656877799999
 20
80.5
 30
0.0
 40
0.5
100
AcDbArc
 50
191.768288932
 51
270.0
  0
LINE
  5
2F7
330
235
100
AcDbEntity
  8
0
  6
Continuous
 62
     1
100
AcDbLine
 10
132.082921432
 20
80.398022873
 30
0.0
 11
133.0
 21
84.79999999999998
 31
0.0
  0
LINE
  5
2F8
330
235
100
AcDbEntity
  8
0
  6
Continuous
 62
     1
100
AcDbLine
 10
86.40656877799999
 20
80.0
 30
0.0
 11
131.593431222
 21
80.0
 31
0.0
  0
ARC
  5
2F9
330
235
100
AcDbEntity
  8
0
  6
Continuous
 62
     1
100
AcDbCircle
 10
131.593431222
 20
80.5
 30
0.0
 40
0.5
100
AcDbArc
 50
270.0
 51
348.231711068
  0
LINE
  5
2FA
330
235
100
AcDbEntity
  8
0
  6
Continuous
 62
     1
100
AcDbLine
 10
131.0
 20
84.79999999999998
 30
0.0
 11
131.0
 21
134.8
 31
0.0
  0
ARC
  5
2FB
330
235
100
AcDbEntity
  8
0
  6
Continuous
 62
     1
100
AcDbCircle
 10
130.0
 20
134.8
 30
0.0
 40
1.0
100
AcDbArc
 50
0.0
 51
90.0
  0
LINE
  5
2FC
330
235
100
AcDbEntity
  8
0
  6
Continuous
 62
     1
100
AcDbLine
 10
87.0
 20
134.8
 30
0.0
 11
87.0
 21
84.79999999999998
 31
0.0
  0
LINE
  5
2FD
330
235
100
AcDbEntity
  8
0
  6
Continuous
 62
     1
100
AcDbLine
 10
130.0
 20
135.8
 30
0.0
 11
88.0
 21
135.8
 31
0.0
  0
ARC
  5
2FE
330
235
100
AcDbEntity
  8
0
  6
Continuous
 62
     1
100
AcDbCircle
 10
88.0
 20
134.8
 30
0.0
 40
1.0
100
AcDbArc
 50
90.0
 51
180.0
  0
LINE
  5
2FF
330
235
100
AcDbEntity
  8
0
  6
Continuous
 62
     1
100
AcDbLine
 10
131.0
 20
84.79999999999998
 30
0.0
 11
131.4999999999997
 21
84.79999999999998
 31
0.0
  0
LINE
  5
300
330
235
100
AcDbEntity
  8
0
  6
Continuous
 62
     1
100
AcDbLine
 10
131.4999999999997
 20
84.79999999999998
 30
0.0
 11
131.4999999999997
 21
85.79999999999998
 31
0.0
  0
LINE
  5
301
330
235
100
AcDbEntity
  8
0
  6
Continuous
 62
     1
100
AcDbLine
 10
131.4999999999997
 20
85.79999999999998
 30
0.0
 11
132.0
 21
85.79999999999998
 31
0.0
  0
LINE
  5
302
330
235
100
AcDbEntity
  8
0
  6
Continuous
 62
     1
100
AcDbLine
 10
132.0
 20
85.79999999999998
 30
0.0
 11
132.0
 21
86.79999999999997
 31
0.0
  0
LINE
  5
303
330
235
100
AcDbEntity
  8
0
  6
Continuous
 62
     1
100
AcDbLine
 10
132.0
 20
86.79999999999997
 30
0.0
 11
132.4999999999997
 21
86.79999999999997
 31
0.0
  0
LINE
  5
304
330
235
100
AcDbEntity
  8
0
  6
Continuous
 62
     1
100
AcDbLine
 10
132.4999999999997
 20
86.79999999999997
 30
0.0
 11
132.4999999999997
 21
87.79999999999999
 31
0.0
  0
LINE
  5
305
330
235
100
AcDbEntity
  8
0
  6
Continuous
 62
     1
100
AcDbLine
 10
132.4999999999997
 20
87.79999999999999
 30
0.0
 11
133.0
 21
87.79999999999999
 31
0.0
  0
LINE
  5
306
330
235
100
AcDbEntity
  8
0
  6
Continuous
 62
     1
100
AcDbLine
 10
133.0
 20
87.79999999999999
 30
0.0
 11
133.0
 21
88.79999999999999
 31
0.0
  0
LINE
  5
307
330
235
100
AcDbEntity
  8
0
  6
Continuous
 62
     1
100
AcDbLine
 10
133.0
 20
88.79999999999999
 30
0.0
 11
133.4999999999997
 21
88.79999999999999
 31
0.0
  0
LINE
  5
308
330
235
100
AcDbEntity
  8
0
  6
Continuous
 62
     1
100
AcDbLine
 10
133.4999999999997
 20
88.79999999999999
 30
0.0
 11
133.4999999999997
 21
89.79999999999998
 31
0.0
  0
ARC
  5
309
330
235
100
AcDbEntity
  8
0
  6
Continuous
 62
     1
100
AcDbCircle
 10
159.8928571429999
 20
101.9785714289999
 30
0.0
 40
29.067172381
100
AcDbArc
 50
186.277998251
 51
204.770223742
  0
LINE
  5
30A
330
235
100
AcDbEntity
  8
0
  6
Continuous
 62
     1
100
AcDbLine
 10
86.5
 20
84.79999999999998
 30
0.0
 11
86.5
 21
85.79999999999998
 31
0.0
  0
LINE
  5
30B
330
235
100
AcDbEntity
  8
0
  6
Continuous
 62
     1
100
AcDbLine
 10
86.5
 20
85.79999999999998
 30
0.0
 11
86.0
 21
85.79999999999998
 31
0.0
  0
LINE
  5
30C
330
235
100
AcDbEntity
  8
0
  6
Continuous
 62
     1
100
AcDbLine
 10
86.0
 20
85.79999999999998
 30
0.0
 11
86.0
 21
86.79999999999997
 31
0.0
  0
LINE
  5
30D
330
235
100
AcDbEntity
  8
0
  6
Continuous
 62
     1
100
AcDbLine
 10
86.0
 20
86.79999999999997
 30
0.0
 11
85.5
 21
86.79999999999997
 31
0.0
  0
LINE
  5
30E
330
235
100
AcDbEntity
  8
0
  6
Continuous
 62
     1
100
AcDbLine
 10
85.5
 20
86.79999999999997
 30
0.0
 11
85.5
 21
87.79999999999999
 31
0.0
  0
LINE
  5
30F
330
235
100
AcDbEntity
  8
0
  6
Continuous
 62
     1
100
AcDbLine
 10
85.5
 20
87.79999999999999
 30
0.0
 11
85.0
 21
87.79999999999999
 31
0.0
  0
LINE
  5
310
330
235
100
AcDbEntity
  8
0
  6
Continuous
 62
     1
100
AcDbLine
 10
85.0
 20
87.79999999999999
 30
0.0
 11
85.0
 21
88.79999999999999
 31
0.0
  0
LINE
  5
311
330
235
100
AcDbEntity
  8
0
  6
Continuous
 62
     1
100
AcDbLine
 10
85.0
 20
88.79999999999999
 30
0.0
 11
84.50000000000001
 21
88.79999999999999
 31
0.0
  0
LINE
  5
312
330
235
100
AcDbEntity
  8
0
  6
Continuous
 62
     1
100
AcDbLine
 10
84.50000000000001
 20
88.79999999999999
 30
0.0
 11
84.50000000000001
 21
89.79999999999998
 31
0.0
  0
ARC
  5
313
330
235
100
AcDbEntity
  8
0
  6
Continuous
 62
     1
100
AcDbCircle
 10
58.107142857
 20
101.9785714289999
 30
0.0
 40
29.067172381
100
AcDbArc
 50
335.229776258
 51
353.722001749
  0
LINE
  5
314
330
235
100
AcDbEntity
  8
0
  6
Continuous
 62
     1
100
AcDbLine
 10
163.4999999999998
 20
84.79999999999998
 30
0.0
 11
188.4999999999998
 21
84.79999999999998
 31
0.0
  0
LINE
  5
315
330
235
100
AcDbEntity
  8
0
  6
Continuous
 62
     1
100
AcDbLine
 10
188.4999999999998
 20
84.79999999999998
 30
0.0
 11
188.046687183
 21
80.44819695799999
 31
0.0
  0
ARC
  5
316
330
235
100
AcDbEntity
  8
0
  6
Continuous
 62
     1
100
AcDbCircle
 10
187.549377979
 20
80.5
 30
0.0
 40
0.5
100
AcDbArc
 50
270.0
 51
354.053136946
  0
LINE
  5
317
330
235
100
AcDbEntity
  8
0
  6
Continuous
 62
     1
100
AcDbLine
 10
163.953312817
 20
80.44819695799999
 30
0.0
 11
163.4999999999998
 21
84.79999999999998
 31
0.0
  0
LINE
  5
318
330
235
100
AcDbEntity
  8
0
  6
Continuous
 62
     1
100
AcDbLine
 10
187.549377979
 20
80.0
 30
0.0
 11
164.450622021
 21
80.0
 31
0.0
  0
ARC
  5
319
330
235
100
AcDbEntity
  8
0
  6
Continuous
 62
     1
100
AcDbCircle
 10
164.450622021
 20
80.5
 30
0.0
 40
0.5
100
AcDbArc
 50
185.946863054
 51
270.0
  0
LINE
  5
31A
330
235
100
AcDbEntity
  8
0
  6
Continuous
 62
     1
100
AcDbLine
 10
182.0
 20
102.8
 30
0.0
 11
182.0
 21
84.79999999999998
 31
0.0
  0
LINE
  5
31B
330
235
100
AcDbEntity
  8
0
  6
Continuous
 62
     1
100
AcDbLine
 10
181.0
 20
84.79999999999998
 30
0.0
 11
181.0
 21
102.8
 31
0.0
  0
LINE
  5
31C
330
235
100
AcDbEntity
  8
0
  6
Continuous
 62
     1
100
AcDbLine
 10
170.0
 20
84.79999999999998
 30
0.0
 11
170.0
 21
102.8
 31
0.0
  0
LINE
  5
31D
330
235
100
AcDbEntity
  8
0
  6
Continuous
 62
     1
100
AcDbLine
 10
171.0
 20
102.8
 30
0.0
 11
171.0
 21
84.79999999999998
 31
0.0
  0
LINE
  5
31E
330
235
100
AcDbEntity
  8
0
  6
Continuous
 62
     1
100
AcDbLine
 10
171.0
 20
89.79999999999998
 30
0.0
 11
181.0
 21
89.79999999999998
 31
0.0
  0
LINE
  5
31F
330
235
100
AcDbEntity
  8
0
  6
Continuous
 62
     1
100
AcDbLine
 10
171.0
 20
88.79999999999999
 30
0.0
 11
181.0
 21
88.79999999999999
 31
0.0
  0
LINE
  5
320
330
235
100
AcDbEntity
  8
0
  6
Continuous
 62
     1
100
AcDbLine
 10
181.0
 20
87.79999999999999
 30
0.0
 11
171.0
 21
87.79999999999999
 31
0.0
  0
LINE
  5
321
330
235
100
AcDbEntity
  8
0
  6
Continuous
 62
     1
100
AcDbLine
 10
171.0
 20
86.79999999999997
 30
0.0
 11
181.0
 21
86.79999999999997
 31
0.0
  0
LINE
  5
322
330
235
100
AcDbEntity
  8
0
  6
Continuous
 62
     1
100
AcDbLine
 10
181.0
 20
85.79999999999998
 30
0.0
 11
171.0
 21
85.79999999999998
 31
0.0
  0
ARC
  5
323
330
235
100
AcDbEntity
  8
0
  6
Continuous
 62
     1
100
AcDbCircle
 10
170.5
 20
102.8
 30
0.0
 40
0.5
100
AcDbArc
 50
0.0
 51
180.0
  0
ARC
  5
324
330
235
100
AcDbEntity
  8
0
  6
Continuous
 62
     1
100
AcDbCircle
 10
181.4999999999997
 20
102.8
 30
0.0
 40
0.5
100
AcDbArc
 50
0.0
 51
180.0
  0
ARC
  5
325
330
235
100
AcDbEntity
  8
0
  6
Continuous
 62
     1
100
AcDbCircle
 10
128.0
 20
130.8
 30
0.0
 40
1.0
100
AcDbArc
 50
0.0
 51
90.0
  0
LINE
  5
326
330
235
100
AcDbEntity
  8
0
  6
Continuous
 62
     1
100
AcDbLine
 10
90.0
 20
131.8
 30
0.0
 11
128.0
 21
131.8
 31
0.0
  0
ARC
  5
327
330
235
100
AcDbEntity
  8
0
  6
Continuous
 62
     1
100
AcDbCircle
 10
90.0
 20
130.8
 30
0.0
 40
1.0
100
AcDbArc
 50
90.0
 51
180.0
  0
ARC
  5
328
330
235
100
AcDbEntity
  8
0
  6
Continuous
 62
     1
100
AcDbCircle
 10
166.5
 20
134.8
 30
0.0
 40
1.0
100
AcDbArc
 50
90.0
 51
180.0
  0
ARC
  5
329
330
235
100
AcDbEntity
  8
0
  6
Continuous
 62
     1
100
AcDbCircle
 10
185.5
 20
134.8
 30
0.0
 40
1.0
100
AcDbArc
 50
0.0
 51
90.0
  0
LINE
  5
32A
330
235
100
AcDbEntity
  8
0
  6
Continuous
 62
     1
100
AcDbLine
 10
185.5
 20
135.8
 30
0.0
 11
166.5
 21
135.8
 31
0.0
  0
LINE
  5
32B
330
235
100
AcDbEntity
  8
0
  6
Continuous
 62
     1
100
AcDbLine
 10
186.5
 20
134.8
 30
0.0
 11
187.0
 21
84.79999999999998
 31
0.0
  0
LINE
  5
32C
330
235
100
AcDbEntity
  8
0
  6
Continuous
 62
     1
100
AcDbLine
 10
165.0
 20
84.79999999999998
 30
0.0
 11
165.5
 21
134.8
 31
0.0
  0
LINE
  5
32D
330
235
100
AcDbEntity
  8
0
  6
Continuous
 62
     1
100
AcDbLine
 10
89.0
 20
112.7999999999999
 30
0.0
 11
89.0
 21
130.8
 31
0.0
  0
ARC
  5
32E
330
235
100
AcDbEntity
  8
0
  6
Continuous
 62
     1
100
AcDbCircle
 10
90.0
 20
112.7999999999999
 30
0.0
 40
1.0
100
AcDbArc
 50
180.0
 51
270.0
  0
LINE
  5
32F
330
235
100
AcDbEntity
  8
0
  6
Continuous
 62
     1
100
AcDbLine
 10
128.0
 20
111.8
 30
0.0
 11
90.0
 21
111.8
 31
0.0
  0
LINE
  5
330
330
235
100
AcDbEntity
  8
0
  6
Continuous
 62
     1
100
AcDbLine
 10
129.0
 20
130.8
 30
0.0
 11
129.0
 21
112.7999999999999
 31
0.0
  0
ARC
  5
331
330
235
100
AcDbEntity
  8
0
  6
Continuous
 62
     1
100
AcDbCircle
 10
128.0
 20
112.7999999999999
 30
0.0
 40
1.0
100
AcDbArc
 50
270.0
 51
0.0
  0
LINE
  5
332
330
235
100
AcDbEntity
  8
0
  6
Continuous
 62
     1
100
AcDbLine
 10
88.49999999999999
 20
135.8
 30
0.0
 11
88.49999999999999
 21
142.0
 31
0.0
  0
LINE
  5
333
330
235
100
AcDbEntity
  8
0
  6
Continuous
 62
     1
100
AcDbLine
 10
88.49999999999999
 20
142.0
 30
0.0
 11
89.50000000000001
 21
143.0
 31
0.0
  0
LINE
  5
334
330
235
100
AcDbEntity
  8
0
  6
Continuous
 62
     1
100
AcDbLine
 10
129.4999999999997
 20
135.8
 30
0.0
 11
129.4999999999997
 21
142.0
 31
0.0
  0
LINE
  5
335
330
235
100
AcDbEntity
  8
0
  6
Continuous
 62
     1
100
AcDbLine
 10
128.4999999999998
 20
143.0
 30
0.0
 11
89.50000000000001
 21
143.0
 31
0.0
  0
LINE
  5
336
330
235
100
AcDbEntity
  8
0
  6
Continuous
 62
     1
100
AcDbLine
 10
129.4999999999997
 20
142.0
 30
0.0
 11
128.4999999999998
 21
143.0
 31
0.0
  0
LINE
  5
337
330
235
100
AcDbEntity
  8
0
  6
LTYPE1
 62
     1
100
AcDbLine
 10
179.4999999999998
 20
135.8
 30
0.0
 11
179.4999999999998
 21
145.8
 31
0.0
  0
LINE
  5
338
330
235
100
AcDbEntity
  8
0
  6
LTYPE1
 62
     1
100
AcDbLine
 10
179.4999999999998
 20
145.8
 30
0.0
 11
187.0
 21
145.8
 31
0.0
  0
LINE
  5
339
330
235
100
AcDbEntity
  8
0
  6
LTYPE1
 62
     1
100
AcDbLine
 10
187.0
 20
135.8
 30
0.0
 11
187.0
 21
145.8
 31
0.0
  0
TEXT
  5
33A
330
235
100
AcDbEntity
  8
0
  6
Continuous
 62
     6
100
AcDbText
 10
78.0
 20
74.09999999999998
 30
0.3
 40
3.0
  1
４.８
 50
270.0
 41
0.6
  7
KANJI0
100
AcDbText
  0
TEXT
  5
33B
330
235
100
AcDbEntity
  8
0
  6
Continuous
 62
     6
100
AcDbText
 10
78.0
 20
110.7499999999999
 30
0.3
 40
3.0
  1
５１
 50
270.0
 41
0.6
  7
KANJI0
100
AcDbText
  0
LINE
  5
33C
330
235
100
AcDbEntity
  8
0
  6
Continuous
 62
     6
100
AcDbLine
 10
77.0
 20
84.79999999999998
 30
0.3
 11
77.64704761299999
 21
87.21481456600002
 31
0.3
  0
LINE
  5
33D
330
235
100
AcDbEntity
  8
0
  6
Continuous
 62
     6
100
AcDbLine
 10
77.0
 20
84.79999999999998
 30
0.0
 11
76.352952387
 21
87.21481456600002
 31
0.0
  0
LINE
  5
33E
330
235
100
AcDbEntity
  8
0
  6
Continuous
 62
     6
100
AcDbLine
 10
77.0
 20
84.79999999999998
 30
0.0
 11
79.0
 21
84.79999999999998
 31
0.0
  0
LINE
  5
33F
330
235
100
AcDbEntity
  8
0
  6
Continuous
 62
     6
100
AcDbLine
 10
85.0
 20
80.0
 30
0.0
 11
75.0
 21
80.0
 31
0.0
  0
LINE
  5
340
330
235
100
AcDbEntity
  8
0
  6
Continuous
 62
     6
100
AcDbLine
 10
77.0
 20
80.0
 30
0.0
 11
76.352952387
 21
77.58518543399998
 31
0.0
  0
LINE
  5
341
330
235
100
AcDbEntity
  8
0
  6
Continuous
 62
     6
100
AcDbLine
 10
77.0
 20
80.0
 30
0.0
 11
77.64704761299999
 21
77.58518543399998
 31
0.0
  0
LINE
  5
342
330
235
100
AcDbEntity
  8
0
  6
Continuous
 62
     6
100
AcDbLine
 10
77.0
 20
69.0
 30
0.0
 11
77.0
 21
89.79999999999998
 31
0.0
  0
LINE
  5
343
330
235
100
AcDbEntity
  8
0
  6
Continuous
 62
     6
100
AcDbLine
 10
77.0
 20
84.79999999999998
 30
0.0
 11
77.64704761299999
 21
87.21481456600002
 31
0.0
  0
LINE
  5
344
330
235
100
AcDbEntity
  8
0
  6
Continuous
 62
     6
100
AcDbLine
 10
77.0
 20
84.79999999999998
 30
0.0
 11
76.352952387
 21
87.21481456600002
 31
0.0
  0
LINE
  5
345
330
235
100
AcDbEntity
  8
0
  6
Continuous
 62
     6
100
AcDbLine
 10
85.0
 20
84.79999999999998
 30
0.0
 11
75.0
 21
84.79999999999998
 31
0.0
  0
LINE
  5
346
330
235
100
AcDbEntity
  8
0
  6
Continuous
 62
     6
100
AcDbLine
 10
87.0
 20
135.8
 30
0.0
 11
79.0
 21
135.8
 31
0.0
  0
LINE
  5
347
330
235
100
AcDbEntity
  8
0
  6
Continuous
 62
     6
100
AcDbLine
 10
81.0
 20
135.8
 30
0.0
 11
81.64704761299999
 21
138.2148145659997
 31
0.0
  0
LINE
  5
348
330
235
100
AcDbEntity
  8
0
  6
Continuous
 62
     6
100
AcDbLine
 10
81.0
 20
135.8
 30
0.0
 11
80.35295238699999
 21
138.2148145659997
 31
0.0
  0
LINE
  5
349
330
235
100
AcDbEntity
  8
0
  6
Continuous
 62
     6
100
AcDbLine
 10
81.0
 20
131.8
 30
0.0
 11
80.35295238699999
 21
129.3851854339999
 31
0.0
  0
LINE
  5
34A
330
235
100
AcDbEntity
  8
0
  6
Continuous
 62
     6
100
AcDbLine
 10
81.0
 20
131.8
 30
0.0
 11
81.64704761299999
 21
129.3851854339999
 31
0.0
  0
LINE
  5
34B
330
235
100
AcDbEntity
  8
0
  6
Continuous
 62
     6
100
AcDbLine
 10
89.0
 20
131.8
 30
0.0
 11
79.0
 21
131.8
 31
0.0
  0
LINE
  5
34C
330
235
100
AcDbEntity
  8
0
  6
Continuous
 62
     6
100
AcDbLine
 10
87.0
 20
135.8
 30
0.0
 11
75.0
 21
135.8
 31
0.0
  0
LINE
  5
34D
330
235
100
AcDbEntity
  8
0
  6
Continuous
 62
     6
100
AcDbLine
 10
77.0
 20
135.8
 30
0.0
 11
76.352952387
 21
133.3851854339999
 31
0.0
  0
LINE
  5
34E
330
235
100
AcDbEntity
  8
0
  6
Continuous
 62
     6
100
AcDbLine
 10
77.0
 20
135.8
 30
0.0
 11
77.64704761299999
 21
133.3851854339999
 31
0.0
  0
LINE
  5
34F
330
235
100
AcDbEntity
  8
0
  6
Continuous
 62
     6
100
AcDbLine
 10
77.0
 20
135.8
 30
0.0
 11
77.0
 21
84.79999999999998
 31
0.0
  0
LINE
  5
350
330
235
100
AcDbEntity
  8
0
  6
Continuous
 62
     6
100
AcDbLine
 10
81.0
 20
140.8
 30
0.0
 11
81.0
 21
125.0
 31
0.0
  0
LINE
  5
351
330
235
100
AcDbEntity
  8
0
  6
Continuous
 62
     6
100
AcDbLine
 10
68.18000000000001
 20
143.0
 30
0.0
 11
67.66236191
 21
141.068148347
 31
0.0
  0
LINE
  5
352
330
235
100
AcDbEntity
  8
0
  6
Continuous
 62
     6
100
AcDbLine
 10
68.18000000000001
 20
143.0
 30
0.0
 11
68.69763809
 21
141.068148347
 31
0.0
  0
TEXT
  5
353
330
235
100
AcDbEntity
  8
0
  6
Continuous
 62
     6
100
AcDbText
 10
69.22
 20
113.2
 30
0.3
 40
3.0
  1
６３
 50
270.0
 41
0.6
  7
KANJI0
100
AcDbText
  0
LINE
  5
354
330
235
100
AcDbEntity
  8
0
  6
Continuous
 62
     6
100
AcDbLine
 10
85.0
 20
80.0
 30
0.3
 11
67.18
 21
80.0
 31
0.3
  0
LINE
  5
355
330
235
100
AcDbEntity
  8
0
  6
Continuous
 62
     6
100
AcDbLine
 10
68.18000000000001
 20
80.0
 30
0.0
 11
68.69763809
 21
81.93185165299999
 31
0.0
  0
LINE
  5
356
330
235
100
AcDbEntity
  8
0
  6
Continuous
 62
     6
100
AcDbLine
 10
68.18000000000001
 20
80.0
 30
0.0
 11
67.66236191
 21
81.93185165299999
 31
0.0
  0
LINE
  5
357
330
235
100
AcDbEntity
  8
0
  6
Continuous
 62
     6
100
AcDbLine
 10
68.18000000000001
 20
80.0
 30
0.0
 11
68.18000000000001
 21
143.0
 31
0.0
  0
LINE
  5
358
330
235
100
AcDbEntity
  8
0
  6
Continuous
 62
     6
100
AcDbLine
 10
88.49999999999999
 20
143.0
 30
0.0
 11
67.18
 21
143.0
 31
0.0
  0
TEXT
  5
359
330
235
100
AcDbEntity
  8
0
  6
Continuous
 62
     6
100
AcDbText
 10
78.0
 20
43.04999999999998
 30
0.3
 40
3.0
  1
２４
 50
270.0
 41
0.6
  7
KANJI0
100
AcDbText
  0
LINE
  5
35A
330
235
100
AcDbEntity
  8
0
  6
Continuous
 62
     6
100
AcDbLine
 10
85.0
 20
30.0
 30
0.3
 11
75.0
 21
30.0
 31
0.3
  0
LINE
  5
35B
330
235
100
AcDbEntity
  8
0
  6
Continuous
 62
     6
100
AcDbLine
 10
77.0
 20
30.0
 30
0.0
 11
77.64704761299999
 21
32.41481456599998
 31
0.0
  0
LINE
  5
35C
330
235
100
AcDbEntity
  8
0
  6
Continuous
 62
     6
100
AcDbLine
 10
77.0
 20
30.0
 30
0.0
 11
76.352952387
 21
32.41481456599998
 31
0.0
  0
LINE
  5
35D
330
235
100
AcDbEntity
  8
0
  6
Continuous
 62
     6
100
AcDbLine
 10
77.0
 20
30.0
 30
0.0
 11
77.0
 21
54.0
 31
0.0
  0
LINE
  5
35E
330
235
100
AcDbEntity
  8
0
  6
Continuous
 62
     6
100
AcDbLine
 10
77.0
 20
54.0
 30
0.0
 11
76.352952387
 21
51.58518543399999
 31
0.0
  0
LINE
  5
35F
330
235
100
AcDbEntity
  8
0
  6
Continuous
 62
     6
100
AcDbLine
 10
77.0
 20
54.0
 30
0.0
 11
77.64704761299999
 21
51.58518543399999
 31
0.0
  0
LINE
  5
360
330
235
100
AcDbEntity
  8
0
  6
Continuous
 62
     6
100
AcDbLine
 10
85.0
 20
54.0
 30
0.0
 11
75.0
 21
54.0
 31
0.0
  0
TEXT
  5
361
330
235
100
AcDbEntity
  8
0
  6
Continuous
 62
     6
100
AcDbText
 10
107.05
 20
19.0
 30
0.3
 40
3.0
  1
４８
 41
0.6
  7
KANJI0
100
AcDbText
  0
LINE
  5
362
330
235
100
AcDbEntity
  8
0
  6
Continuous
 62
     6
100
AcDbLine
 10
85.0
 20
30.0
 30
0.3
 11
85.0
 21
16.0
 31
0.3
  0
LINE
  5
363
330
235
100
AcDbEntity
  8
0
  6
Continuous
 62
     6
100
AcDbLine
 10
85.0
 20
18.0
 30
0.0
 11
87.414814566
 21
17.352952387
 31
0.0
  0
LINE
  5
364
330
235
100
AcDbEntity
  8
0
  6
Continuous
 62
     6
100
AcDbLine
 10
85.0
 20
18.0
 30
0.0
 11
87.414814566
 21
18.64704761299998
 31
0.0
  0
LINE
  5
365
330
235
100
AcDbEntity
  8
0
  6
Continuous
 62
     6
100
AcDbLine
 10
85.0
 20
18.0
 30
0.0
 11
133.0
 21
18.0
 31
0.0
  0
LINE
  5
366
330
235
100
AcDbEntity
  8
0
  6
Continuous
 62
     6
100
AcDbLine
 10
133.0
 20
18.0
 30
0.0
 11
130.585185434
 21
18.64704761299998
 31
0.0
  0
LINE
  5
367
330
235
100
AcDbEntity
  8
0
  6
Continuous
 62
     6
100
AcDbLine
 10
133.0
 20
18.0
 30
0.0
 11
130.585185434
 21
17.352952387
 31
0.0
  0
LINE
  5
368
330
235
100
AcDbEntity
  8
0
  6
Continuous
 62
     6
100
AcDbLine
 10
133.0
 20
30.0
 30
0.0
 11
133.0
 21
16.0
 31
0.0
  0
LINE
  5
369
330
235
100
AcDbEntity
  8
0
  6
Continuous
 62
     6
100
AcDbLine
 10
131.0
 20
84.79999999999998
 30
0.0
 11
135.0
 21
95.8
 31
0.0
  0
LINE
  5
36A
330
235
100
AcDbEntity
  8
0
  6
Continuous
 62
     6
100
AcDbLine
 10
134.5999999999999
 20
94.8
 30
0.0
 11
132.668148347
 21
95.31763809
 31
0.0
  0
LINE
  5
36B
330
235
100
AcDbEntity
  8
0
  6
Continuous
 62
     6
100
AcDbLine
 10
134.5999999999999
 20
94.8
 30
0.0
 11
132.668148347
 21
94.28236191000001
 31
0.0
  0
TEXT
  5
36C
330
235
100
AcDbEntity
  8
0
  6
Continuous
 62
     6
100
AcDbText
 10
110.8999999999999
 20
95.8
 30
0.3
 40
3.0
  1
４５
 41
0.6
  7
KANJI0
100
AcDbText
  0
LINE
  5
36D
330
235
100
AcDbEntity
  8
0
  6
Continuous
 62
     6
100
AcDbLine
 10
87.0
 20
84.79999999999998
 30
0.3
 11
91.0
 21
95.8
 31
0.3
  0
LINE
  5
36E
330
235
100
AcDbEntity
  8
0
  6
Continuous
 62
     6
100
AcDbLine
 10
90.6
 20
94.8
 30
0.0
 11
92.53185165299999
 21
94.28236191000001
 31
0.0
  0
LINE
  5
36F
330
235
100
AcDbEntity
  8
0
  6
Continuous
 62
     6
100
AcDbLine
 10
90.6
 20
94.8
 30
0.0
 11
92.53185165299999
 21
95.31763809
 31
0.0
  0
LINE
  5
370
330
235
100
AcDbEntity
  8
0
  6
Continuous
 62
     6
100
AcDbLine
 10
134.5999999999999
 20
94.8
 30
0.0
 11
90.6
 21
94.8
 31
0.0
  0
LINE
  5
371
330
235
100
AcDbEntity
  8
0
  6
Continuous
 62
     6
100
AcDbLine
 10
87.0
 20
150.8
 30
0.0
 11
89.414814566
 21
150.1529523869999
 31
0.0
  0
LINE
  5
372
330
235
100
AcDbEntity
  8
0
  6
Continuous
 62
     6
100
AcDbLine
 10
87.0
 20
150.8
 30
0.0
 11
89.414814566
 21
151.447047613
 31
0.0
  0
LINE
  5
373
330
235
100
AcDbEntity
  8
0
  6
Continuous
 62
     6
100
AcDbLine
 10
87.0
 20
150.8
 30
0.0
 11
131.0
 21
150.8
 31
0.0
  0
LINE
  5
374
330
235
100
AcDbEntity
  8
0
  6
Continuous
 62
     6
100
AcDbLine
 10
131.0
 20
150.8
 30
0.0
 11
128.585185434
 21
151.447047613
 31
0.0
  0
LINE
  5
375
330
235
100
AcDbEntity
  8
0
  6
Continuous
 62
     6
100
AcDbLine
 10
131.0
 20
150.8
 30
0.0
 11
128.585185434
 21
150.1529523869999
 31
0.0
  0
LINE
  5
376
330
235
100
AcDbEntity
  8
0
  6
Continuous
 62
     6
100
AcDbLine
 10
87.0
 20
135.8
 30
0.0
 11
87.0
 21
152.8
 31
0.0
  0
LINE
  5
377
330
235
100
AcDbEntity
  8
0
  6
Continuous
 62
     6
100
AcDbLine
 10
131.0
 20
135.8
 30
0.0
 11
131.0
 21
152.8
 31
0.0
  0
TEXT
  5
378
330
235
100
AcDbEntity
  8
0
  6
Continuous
 62
     6
100
AcDbText
 10
103.0499999999999
 20
151.8
 30
0.3
 40
3.0
  1
４４
 41
0.6
  7
KANJI0
100
AcDbText
  0
LINE
  5
379
330
235
100
AcDbEntity
  8
0
  6
Continuous
 62
     6
100
AcDbLine
 10
184.1999999999999
 20
152.4
 30
0.3
 11
152.38
 21
152.4
 31
0.3
  0
LINE
  5
37A
330
235
100
AcDbEntity
  8
0
  6
Continuous
 62
     6
100
AcDbLine
 10
153.38
 20
152.4
 30
0.0
 11
152.86236191
 21
150.468148347
 31
0.0
  0
LINE
  5
37B
330
235
100
AcDbEntity
  8
0
  6
Continuous
 62
     6
100
AcDbLine
 10
153.38
 20
152.4
 30
0.0
 11
153.8976380899998
 21
150.468148347
 31
0.0
  0
TEXT
  5
382
330
235
100
AcDbEntity
  8
0
  6
Continuous
 62
     6
100
AcDbText
 10
154.42
 20
118.5
 30
0.3
 40
3.0
  1
７３
 50
270.0
 41
0.6
  7
KANJI0
100
AcDbText
  0
TEXT
  5
383
330
235
100
AcDbEntity
  8
0
  6
Continuous
 62
     6
100
AcDbText
 10
160.0999999999999
 20
95.8
 30
0.3
 40
3.0
  1
２２
 41
0.6
  7
KANJI0
100
AcDbText
  0
LINE
  5
384
330
235
100
AcDbEntity
  8
0
  6
Continuous
 62
     6
100
AcDbLine
 10
153.38
 20
80.0
 30
0.3
 11
153.8976380899998
 21
81.93185165299999
 31
0.3
  0
LINE
  5
385
330
235
100
AcDbEntity
  8
0
  6
Continuous
 62
     6
100
AcDbLine
 10
153.38
 20
80.0
 30
0.0
 11
152.86236191
 21
81.93185165299999
 31
0.0
  0
LINE
  5
386
330
235
100
AcDbEntity
  8
0
  6
Continuous
 62
     6
100
AcDbLine
 10
163.0
 20
80.0
 30
0.0
 11
152.38
 21
80.0
 31
0.0
  0
LINE
  5
387
330
235
100
AcDbEntity
  8
0
  6
Continuous
 62
     6
100
AcDbLine
 10
153.38
 20
152.4
 30
0.0
 11
153.38
 21
80.0
 31
0.0
  0
LINE
  5
388
330
235
100
AcDbEntity
  8
0
  6
Continuous
 62
     6
100
AcDbLine
 10
187.0
 20
84.79999999999998
 30
0.0
 11
191.0
 21
95.8
 31
0.0
  0
LINE
  5
389
330
235
100
AcDbEntity
  8
0
  6
Continuous
 62
     6
100
AcDbLine
 10
190.5
 20
94.8
 30
0.0
 11
193.5
 21
94.8
 31
0.0
  0
LINE
  5
38A
330
235
100
AcDbEntity
  8
0
  6
Continuous
 62
     6
100
AcDbLine
 10
190.5
 20
94.8
 30
0.0
 11
192.431851653
 21
94.28236191000001
 31
0.0
  0
LINE
  5
38B
330
235
100
AcDbEntity
  8
0
  6
Continuous
 62
     6
100
AcDbLine
 10
190.5
 20
94.8
 30
0.0
 11
192.431851653
 21
95.31763809
 31
0.0
  0
LINE
  5
38C
330
235
100
AcDbEntity
  8
0
  6
Continuous
 62
     6
100
AcDbLine
 10
165.0
 20
84.79999999999998
 30
0.0
 11
169.0
 21
95.8
 31
0.0
  0
LINE
  5
38D
330
235
100
AcDbEntity
  8
0
  6
Continuous
 62
     6
100
AcDbLine
 10
168.5
 20
94.8
 30
0.0
 11
166.568148347
 21
94.28236191000001
 31
0.0
  0
LINE
  5
38E
330
235
100
AcDbEntity
  8
0
  6
Continuous
 62
     6
100
AcDbLine
 10
168.5
 20
94.8
 30
0.0
 11
166.568148347
 21
95.31763809
 31
0.0
  0
LINE
  5
38F
330
235
100
AcDbEntity
  8
0
  6
Continuous
 62
     6
100
AcDbLine
 10
160.0999999999999
 20
94.8
 30
0.0
 11
168.5
 21
94.8
 31
0.0
  0
LINE
  5
390
330
235
100
AcDbEntity
  8
0
  6
Continuous
 62
     6
100
AcDbLine
 10
168.5
 20
94.8
 30
0.0
 11
190.5
 21
94.8
 31
0.0
  0
LINE
  5
395
330
235
100
AcDbEntity
  8
0
  6
LTYPE1
 62
     1
100
AcDbLine
 10
184.6999999999999
 20
152.4
 30
0.0
 11
184.6999999999999
 21
145.8
 31
0.0
  0
LINE
  5
396
330
235
100
AcDbEntity
  8
0
  6
LTYPE1
 62
     1
100
AcDbLine
 10
185.4
 20
145.8
 30
0.0
 11
185.4
 21
152.4
 31
0.0
  0
LINE
  5
397
330
235
100
AcDbEntity
  8
0
  6
LTYPE1
 62
     1
100
AcDbLine
 10
185.4
 20
152.4
 30
0.0
 11
184.6999999999999
 21
152.4
 31
0.0
  0
TEXT
  5
398
330
235
100
AcDbEntity
  8
0
  6
Continuous
 62
     6
100
AcDbText
 10
82.0
 20
129.0
 30
0.0
 40
3.0
  1
５
 50
270.0
 41
0.5833333330000002
  7
KANJI3
100
AcDbText
  0
LINE
  5
399
330
235
100
AcDbEntity
  8
0
  6
Continuous
 62
     1
100
AcDbLine
 10
259.0
 20
122.1999999999999
 30
0.0
 11
214.0
 21
122.1999999999999
 31
0.0
  0
LINE
  5
39A
330
235
100
AcDbEntity
  8
0
  6
Continuous
 62
     1
100
AcDbLine
 10
214.0
 20
122.1999999999999
 30
0.0
 11
214.0
 21
100.0
 31
0.0
  0
LINE
  5
39B
330
235
100
AcDbEntity
  8
0
  6
Continuous
 62
     1
100
AcDbLine
 10
259.0
 20
122.1999999999999
 30
0.0
 11
259.0
 21
100.0
 31
0.0
  0
LINE
  5
39C
330
235
100
AcDbEntity
  8
0
  6
Continuous
 62
     1
100
AcDbLine
 10
259.0
 20
100.0
 30
0.0
 11
214.0
 21
100.0
 31
0.0
  0
LINE
  5
39D
330
235
100
AcDbEntity
  8
0
  6
Continuous
 62
     6
100
AcDbLine
 10
214.0
 20
99.0
 30
0.0
 11
214.0
 21
87.0
 31
0.0
  0
LINE
  5
39E
330
235
100
AcDbEntity
  8
0
  6
Continuous
 62
     6
100
AcDbLine
 10
214.0
 20
89.0
 30
0.0
 11
216.414814566
 21
88.352952387
 31
0.0
  0
LINE
  5
39F
330
235
100
AcDbEntity
  8
0
  6
Continuous
 62
     6
100
AcDbLine
 10
214.0
 20
89.0
 30
0.0
 11
216.414814566
 21
89.647047613
 31
0.0
  0
LINE
  5
3A0
330
235
100
AcDbEntity
  8
0
  6
Continuous
 62
     6
100
AcDbLine
 10
259.0
 20
89.0
 30
0.0
 11
256.585185434
 21
89.647047613
 31
0.0
  0
LINE
  5
3A1
330
235
100
AcDbEntity
  8
0
  6
Continuous
 62
     6
100
AcDbLine
 10
259.0
 20
89.0
 30
0.0
 11
256.585185434
 21
88.352952387
 31
0.0
  0
LINE
  5
3A2
330
235
100
AcDbEntity
  8
0
  6
Continuous
 62
     6
100
AcDbLine
 10
259.0
 20
99.0
 30
0.0
 11
259.0
 21
87.0
 31
0.0
  0
TEXT
  5
3A3
330
235
100
AcDbEntity
  8
0
  6
Continuous
 62
     6
100
AcDbText
 10
238.7
 20
93.49999999999999
 30
0.21
 40
2.1
  1
＋０.５
 41
0.9
  7
KANJI4
100
AcDbText
  0
TEXT
  5
3A4
330
235
100
AcDbEntity
  8
0
  6
Continuous
 62
     6
100
AcDbText
 10
238.7
 20
91.0
 30
0.21
 40
2.1
  1
－０
 41
0.9
  7
KANJI4
100
AcDbText
  0
LINE
  5
3A5
330
235
100
AcDbEntity
  8
0
  6
Continuous
 62
     6
100
AcDbLine
 10
214.0
 20
89.0
 30
0.21
 11
259.0
 21
89.0
 31
0.21
  0
TEXT
  5
3A6
330
235
100
AcDbEntity
  8
0
  6
Continuous
 62
     6
100
AcDbText
 10
234.55
 20
90.0
 30
0.3
 40
3.0
  1
４５
 41
0.6
  7
KANJI0
100
AcDbText
  0
LINE
  5
3A7
330
235
100
AcDbEntity
  8
0
  6
Continuous
 62
     6
100
AcDbLine
 10
204.4999999999999
 20
100.0
 30
0.3
 11
205.1470476129999
 21
102.414814566
 31
0.3
  0
LINE
  5
3A8
330
235
100
AcDbEntity
  8
0
  6
Continuous
 62
     6
100
AcDbLine
 10
204.4999999999999
 20
100.0
 30
0.0
 11
203.852952387
 21
102.414814566
 31
0.0
  0
TEXT
  5
3A9
330
235
100
AcDbEntity
  8
0
  6
Continuous
 62
     6
100
AcDbText
 10
207.0
 20
108.3499999999997
 30
0.21
 40
2.1
  1
－０
 50
270.0
 41
0.9
  7
KANJI4
100
AcDbText
  0
TEXT
  5
3AA
330
235
100
AcDbEntity
  8
0
  6
Continuous
 62
     6
100
AcDbText
 10
209.5
 20
108.3499999999997
 30
0.21
 40
2.1
  1
＋０.３
 50
270.0
 41
0.9
  7
KANJI4
100
AcDbText
  0
TEXT
  5
3AB
330
235
100
AcDbEntity
  8
0
  6
Continuous
 62
     6
100
AcDbText
 10
205.5
 20
116.9499999999999
 30
0.3
 40
3.0
  1
２２.２
 50
270.0
 41
0.6
  7
KANJI0
100
AcDbText
  0
LINE
  5
3AC
330
235
100
AcDbEntity
  8
0
  6
Continuous
 62
     6
100
AcDbLine
 10
213.0
 20
100.0
 30
0.3
 11
202.4999999999999
 21
100.0
 31
0.3
  0
LINE
  5
3AD
330
235
100
AcDbEntity
  8
0
  6
Continuous
 62
     6
100
AcDbLine
 10
204.4999999999999
 20
122.1999999999999
 30
0.0
 11
203.852952387
 21
119.785185434
 31
0.0
  0
LINE
  5
3AE
330
235
100
AcDbEntity
  8
0
  6
Continuous
 62
     6
100
AcDbLine
 10
204.4999999999999
 20
122.1999999999999
 30
0.0
 11
205.1470476129999
 21
119.785185434
 31
0.0
  0
LINE
  5
3AF
330
235
100
AcDbEntity
  8
0
  6
Continuous
 62
     6
100
AcDbLine
 10
213.0
 20
122.1999999999999
 30
0.0
 11
202.4999999999999
 21
122.1999999999999
 31
0.0
  0
LINE
  5
3B0
330
235
100
AcDbEntity
  8
0
  6
Continuous
 62
     6
100
AcDbLine
 10
204.4999999999999
 20
122.1999999999999
 30
0.0
 11
204.4999999999999
 21
100.0
 31
0.0
  0
TEXT
  5
3B5
330
235
100
AcDbEntity
  8
0
  6
Continuous
 62
     1
100
AcDbText
 10
219.0
 20
136.1999999999997
 30
0.4
 40
4.0
  1
ＰＡＮＥＬ　ＣＵＴ
 41
0.9
  7
KANJI5
100
AcDbText
  0
LINE
  5
3B6
330
235
100
AcDbEntity
  8
0
  6
Continuous
 62
     1
100
AcDbLine
 10
105.075
 20
45.0
 30
0.4
 11
104.2
 21
46.0
 31
0.4
  0
LINE
  5
3B7
330
235
100
AcDbEntity
  8
0
  6
Continuous
 62
     1
100
AcDbLine
 10
107.8
 20
46.0
 30
0.0
 11
106.675
 21
45.0
 31
0.0
  0
LINE
  5
3B8
330
235
100
AcDbEntity
  8
0
  6
Continuous
 62
     1
100
AcDbLine
 10
104.325
 20
39.0
 30
0.0
 11
103.2
 21
38.0
 31
0.0
  0
LINE
  5
3B9
330
235
100
AcDbEntity
  8
0
  6
Continuous
 62
     1
100
AcDbLine
 10
106.8
 20
37.99
 30
0.0
 11
105.925
 21
38.99
 31
0.0
  0
LINE
  5
3BA
330
235
100
AcDbEntity
  8
0
  6
Continuous
 62
     1
100
AcDbLine
 10
108.0
 20
45.822222222
 30
0.0
 11
106.85
 21
44.79999999999999
 31
0.0
  0
LINE
  5
3BB
330
235
100
AcDbEntity
  8
0
  6
Continuous
 62
     1
100
AcDbLine
 10
104.8499999999997
 20
44.79999999999999
 30
0.0
 11
104.0
 21
45.771428571
 31
0.0
  0
LINE
  5
3BC
330
235
100
AcDbEntity
  8
0
  6
Continuous
 62
     1
100
AcDbLine
 10
106.675
 20
45.0
 30
0.0
 11
105.075
 21
45.0
 31
0.0
  0
LINE
  5
3BD
330
235
100
AcDbEntity
  8
0
  6
Continuous
 62
     1
100
AcDbLine
 10
107.8
 20
46.0
 30
0.0
 11
104.2
 21
46.0
 31
0.0
  0
LINE
  5
3BE
330
235
100
AcDbEntity
  8
0
  6
Continuous
 62
     1
100
AcDbLine
 10
104.6375
 20
41.5
 30
0.0
 11
104.2
 21
42.0
 31
0.0
  0
LINE
  5
3BF
330
235
100
AcDbEntity
  8
0
  6
Continuous
 62
     1
100
AcDbLine
 10
103.9749999999997
 20
45.8
 30
0.0
 11
103.5875
 21
42.7
 31
0.0
  0
LINE
  5
3C0
330
235
100
AcDbEntity
  8
0
  6
Continuous
 62
     1
100
AcDbLine
 10
104.8499999999997
 20
44.79999999999999
 30
0.0
 11
104.5875
 21
42.7
 31
0.0
  0
LINE
  5
3C1
330
235
100
AcDbEntity
  8
0
  6
Continuous
 62
     1
100
AcDbLine
 10
104.2
 20
42.0
 30
0.0
 11
104.7625
 21
42.5
 31
0.0
  0
LINE
  5
3C2
330
235
100
AcDbEntity
  8
0
  6
Continuous
 62
     1
100
AcDbLine
 10
104.025
 20
42.2
 30
0.0
 11
104.5875
 21
42.7
 31
0.0
  0
LINE
  5
3C3
330
235
100
AcDbEntity
  8
0
  6
Continuous
 62
     1
100
AcDbLine
 10
104.025
 20
42.2
 30
0.0
 11
103.5875
 21
42.7
 31
0.0
  0
LINE
  5
3C4
330
235
100
AcDbEntity
  8
0
  6
Continuous
 62
     1
100
AcDbLine
 10
107.5875
 20
42.7
 30
0.0
 11
107.9777777779998
 21
45.822222222
 31
0.0
  0
LINE
  5
3C5
330
235
100
AcDbEntity
  8
0
  6
Continuous
 62
     1
100
AcDbLine
 10
106.5875
 20
42.7
 30
0.0
 11
106.85
 21
44.79999999999999
 31
0.0
  0
LINE
  5
3C6
330
235
100
AcDbEntity
  8
0
  6
Continuous
 62
     1
100
AcDbLine
 10
104.7625
 20
42.5
 30
0.0
 11
106.3625
 21
42.5
 31
0.0
  0
LINE
  5
3C7
330
235
100
AcDbEntity
  8
0
  6
Continuous
 62
     1
100
AcDbLine
 10
106.2375
 20
41.5
 30
0.0
 11
104.6375
 21
41.5
 31
0.0
  0
LINE
  5
3C8
330
235
100
AcDbEntity
  8
0
  6
Continuous
 62
     1
100
AcDbLine
 10
106.8
 20
42.0
 30
0.0
 11
106.3625
 21
42.5
 31
0.0
  0
LINE
  5
3C9
330
235
100
AcDbEntity
  8
0
  6
Continuous
 62
     1
100
AcDbLine
 10
106.4124999999997
 20
41.29999999999999
 30
0.0
 11
106.9749999999997
 21
41.79999999999997
 31
0.0
  0
LINE
  5
3CA
330
235
100
AcDbEntity
  8
0
  6
Continuous
 62
     1
100
AcDbLine
 10
106.2375
 20
41.5
 30
0.0
 11
106.8
 21
42.0
 31
0.0
  0
LINE
  5
3CB
330
235
100
AcDbEntity
  8
0
  6
Continuous
 62
     1
100
AcDbLine
 10
107.025
 20
42.2
 30
0.0
 11
107.5875
 21
42.7
 31
0.0
  0
LINE
  5
3CC
330
235
100
AcDbEntity
  8
0
  6
Continuous
 62
     1
100
AcDbLine
 10
107.025
 20
42.2
 30
0.0
 11
106.5875
 21
42.7
 31
0.0
  0
LINE
  5
3CD
330
235
100
AcDbEntity
  8
0
  6
Continuous
 62
     1
100
AcDbLine
 10
107.4124999999997
 20
41.29999999999999
 30
0.0
 11
106.9749999999997
 21
41.79999999999997
 31
0.0
  0
LINE
  5
3CE
330
235
100
AcDbEntity
  8
0
  6
Continuous
 62
     1
100
AcDbLine
 10
106.15
 20
39.2
 30
0.0
 11
106.4124999999997
 21
41.29999999999999
 31
0.0
  0
LINE
  5
3CF
330
235
100
AcDbEntity
  8
0
  6
Continuous
 62
     1
100
AcDbLine
 10
107.025
 20
38.2
 30
0.0
 11
107.4124999999997
 21
41.29999999999999
 31
0.0
  0
LINE
  5
3D0
330
235
100
AcDbEntity
  8
0
  6
Continuous
 62
     1
100
AcDbLine
 10
107.025
 20
38.2
 30
0.0
 11
106.15
 21
39.2
 31
0.0
  0
LINE
  5
3D1
330
235
100
AcDbEntity
  8
0
  6
Continuous
 62
     1
100
AcDbLine
 10
104.325
 20
39.0
 30
0.0
 11
105.91625
 21
39.0
 31
0.0
  0
LINE
  5
3D2
330
235
100
AcDbEntity
  8
0
  6
Continuous
 62
     1
100
AcDbLine
 10
103.2
 20
38.0
 30
0.0
 11
106.79125
 21
38.0
 31
0.0
  0
LINE
  5
3D3
330
235
100
AcDbEntity
  8
0
  6
Continuous
 62
     1
100
AcDbLine
 10
97.675
 20
45.0
 30
0.0
 11
96.79999999999999
 21
46.0
 31
0.0
  0
LINE
  5
3D4
330
235
100
AcDbEntity
  8
0
  6
Continuous
 62
     1
100
AcDbLine
 10
100.4
 20
46.0
 30
0.0
 11
99.27500000000001
 21
45.0
 31
0.0
  0
LINE
  5
3D5
330
235
100
AcDbEntity
  8
0
  6
Continuous
 62
     1
100
AcDbLine
 10
96.925
 20
39.0
 30
0.0
 11
95.8
 21
38.0
 31
0.0
  0
LINE
  5
3D6
330
235
100
AcDbEntity
  8
0
  6
Continuous
 62
     1
100
AcDbLine
 10
99.40000000000001
 20
37.99
 30
0.0
 11
98.525
 21
38.99
 31
0.0
  0
LINE
  5
3D7
330
235
100
AcDbEntity
  8
0
  6
Continuous
 62
     1
100
AcDbLine
 10
100.6
 20
45.822222222
 30
0.0
 11
99.45
 21
44.79999999999999
 31
0.0
  0
LINE
  5
3D8
330
235
100
AcDbEntity
  8
0
  6
Continuous
 62
     1
100
AcDbLine
 10
97.45
 20
44.79999999999999
 30
0.0
 11
96.6
 21
45.771428571
 31
0.0
  0
LINE
  5
3D9
330
235
100
AcDbEntity
  8
0
  6
Continuous
 62
     1
100
AcDbLine
 10
99.27500000000001
 20
45.0
 30
0.0
 11
97.675
 21
45.0
 31
0.0
  0
LINE
  5
3DA
330
235
100
AcDbEntity
  8
0
  6
Continuous
 62
     1
100
AcDbLine
 10
100.4
 20
46.0
 30
0.0
 11
96.79999999999999
 21
46.0
 31
0.0
  0
LINE
  5
3DB
330
235
100
AcDbEntity
  8
0
  6
Continuous
 62
     1
100
AcDbLine
 10
97.2375
 20
41.5
 30
0.0
 11
96.79999999999999
 21
42.0
 31
0.0
  0
LINE
  5
3DC
330
235
100
AcDbEntity
  8
0
  6
Continuous
 62
     1
100
AcDbLine
 10
96.575
 20
45.8
 30
0.0
 11
96.1875
 21
42.7
 31
0.0
  0
LINE
  5
3DD
330
235
100
AcDbEntity
  8
0
  6
Continuous
 62
     1
100
AcDbLine
 10
97.45
 20
44.79999999999999
 30
0.0
 11
97.1875
 21
42.7
 31
0.0
  0
LINE
  5
3DE
330
235
100
AcDbEntity
  8
0
  6
Continuous
 62
     1
100
AcDbLine
 10
96.79999999999999
 20
42.0
 30
0.0
 11
97.3625
 21
42.5
 31
0.0
  0
LINE
  5
3DF
330
235
100
AcDbEntity
  8
0
  6
Continuous
 62
     1
100
AcDbLine
 10
96.62500000000001
 20
42.2
 30
0.0
 11
97.1875
 21
42.7
 31
0.0
  0
LINE
  5
3E0
330
235
100
AcDbEntity
  8
0
  6
Continuous
 62
     1
100
AcDbLine
 10
96.62500000000001
 20
42.2
 30
0.0
 11
96.1875
 21
42.7
 31
0.0
  0
LINE
  5
3E1
330
235
100
AcDbEntity
  8
0
  6
Continuous
 62
     1
100
AcDbLine
 10
100.1875
 20
42.7
 30
0.0
 11
100.577777778
 21
45.822222222
 31
0.0
  0
LINE
  5
3E2
330
235
100
AcDbEntity
  8
0
  6
Continuous
 62
     1
100
AcDbLine
 10
99.18750000000001
 20
42.7
 30
0.0
 11
99.45
 21
44.79999999999999
 31
0.0
  0
LINE
  5
3E3
330
235
100
AcDbEntity
  8
0
  6
Continuous
 62
     1
100
AcDbLine
 10
97.3625
 20
42.5
 30
0.0
 11
98.96250000000001
 21
42.5
 31
0.0
  0
LINE
  5
3E4
330
235
100
AcDbEntity
  8
0
  6
Continuous
 62
     1
100
AcDbLine
 10
98.8375
 20
41.5
 30
0.0
 11
97.2375
 21
41.5
 31
0.0
  0
LINE
  5
3E5
330
235
100
AcDbEntity
  8
0
  6
Continuous
 62
     1
100
AcDbLine
 10
99.40000000000001
 20
42.0
 30
0.0
 11
98.96250000000001
 21
42.5
 31
0.0
  0
LINE
  5
3E6
330
235
100
AcDbEntity
  8
0
  6
Continuous
 62
     1
100
AcDbLine
 10
99.0125
 20
41.29999999999999
 30
0.0
 11
99.57500000000001
 21
41.79999999999997
 31
0.0
  0
LINE
  5
3E7
330
235
100
AcDbEntity
  8
0
  6
Continuous
 62
     1
100
AcDbLine
 10
98.8375
 20
41.5
 30
0.0
 11
99.40000000000001
 21
42.0
 31
0.0
  0
LINE
  5
3E8
330
235
100
AcDbEntity
  8
0
  6
Continuous
 62
     1
100
AcDbLine
 10
99.625
 20
42.2
 30
0.0
 11
100.1875
 21
42.7
 31
0.0
  0
LINE
  5
3E9
330
235
100
AcDbEntity
  8
0
  6
Continuous
 62
     1
100
AcDbLine
 10
99.625
 20
42.2
 30
0.0
 11
99.18750000000001
 21
42.7
 31
0.0
  0
LINE
  5
3EA
330
235
100
AcDbEntity
  8
0
  6
Continuous
 62
     1
100
AcDbLine
 10
100.0125
 20
41.29999999999999
 30
0.0
 11
99.57500000000001
 21
41.79999999999997
 31
0.0
  0
LINE
  5
3EB
330
235
100
AcDbEntity
  8
0
  6
Continuous
 62
     1
100
AcDbLine
 10
98.75
 20
39.2
 30
0.0
 11
99.0125
 21
41.29999999999999
 31
0.0
  0
LINE
  5
3EC
330
235
100
AcDbEntity
  8
0
  6
Continuous
 62
     1
100
AcDbLine
 10
99.625
 20
38.2
 30
0.0
 11
100.0125
 21
41.29999999999999
 31
0.0
  0
LINE
  5
3ED
330
235
100
AcDbEntity
  8
0
  6
Continuous
 62
     1
100
AcDbLine
 10
99.625
 20
38.2
 30
0.0
 11
98.75
 21
39.2
 31
0.0
  0
LINE
  5
3EE
330
235
100
AcDbEntity
  8
0
  6
Continuous
 62
     1
100
AcDbLine
 10
96.925
 20
39.0
 30
0.0
 11
98.51625000000002
 21
39.0
 31
0.0
  0
LINE
  5
3EF
330
235
100
AcDbEntity
  8
0
  6
Continuous
 62
     1
100
AcDbLine
 10
95.8
 20
38.0
 30
0.0
 11
99.39125000000002
 21
38.0
 31
0.0
  0
LINE
  5
3F0
330
235
100
AcDbEntity
  8
0
  6
Continuous
 62
     1
100
AcDbLine
 10
112.4749999999997
 20
45.0
 30
0.0
 11
111.5999999999997
 21
46.0
 31
0.0
  0
LINE
  5
3F1
330
235
100
AcDbEntity
  8
0
  6
Continuous
 62
     1
100
AcDbLine
 10
115.2
 20
46.0
 30
0.0
 11
114.075
 21
45.0
 31
0.0
  0
LINE
  5
3F2
330
235
100
AcDbEntity
  8
0
  6
Continuous
 62
     1
100
AcDbLine
 10
111.725
 20
39.0
 30
0.0
 11
110.5999999999997
 21
38.0
 31
0.0
  0
LINE
  5
3F3
330
235
100
AcDbEntity
  8
0
  6
Continuous
 62
     1
100
AcDbLine
 10
114.2
 20
37.99
 30
0.0
 11
113.325
 21
38.99
 31
0.0
  0
LINE
  5
3F4
330
235
100
AcDbEntity
  8
0
  6
Continuous
 62
     1
100
AcDbLine
 10
115.4
 20
45.822222222
 30
0.0
 11
114.25
 21
44.79999999999999
 31
0.0
  0
LINE
  5
3F5
330
235
100
AcDbEntity
  8
0
  6
Continuous
 62
     1
100
AcDbLine
 10
112.25
 20
44.79999999999999
 30
0.0
 11
111.4
 21
45.771428571
 31
0.0
  0
LINE
  5
3F6
330
235
100
AcDbEntity
  8
0
  6
Continuous
 62
     1
100
AcDbLine
 10
114.075
 20
45.0
 30
0.0
 11
112.4749999999997
 21
45.0
 31
0.0
  0
LINE
  5
3F7
330
235
100
AcDbEntity
  8
0
  6
Continuous
 62
     1
100
AcDbLine
 10
115.2
 20
46.0
 30
0.0
 11
111.5999999999997
 21
46.0
 31
0.0
  0
LINE
  5
3F8
330
235
100
AcDbEntity
  8
0
  6
Continuous
 62
     1
100
AcDbLine
 10
112.0374999999997
 20
41.5
 30
0.0
 11
111.5999999999997
 21
42.0
 31
0.0
  0
LINE
  5
3F9
330
235
100
AcDbEntity
  8
0
  6
Continuous
 62
     1
100
AcDbLine
 10
111.375
 20
45.8
 30
0.0
 11
110.9874999999999
 21
42.7
 31
0.0
  0
LINE
  5
3FA
330
235
100
AcDbEntity
  8
0
  6
Continuous
 62
     1
100
AcDbLine
 10
112.25
 20
44.79999999999999
 30
0.0
 11
111.9874999999999
 21
42.7
 31
0.0
  0
LINE
  5
3FB
330
235
100
AcDbEntity
  8
0
  6
Continuous
 62
     1
100
AcDbLine
 10
111.5999999999997
 20
42.0
 30
0.0
 11
112.1624999999997
 21
42.5
 31
0.0
  0
LINE
  5
3FC
330
235
100
AcDbEntity
  8
0
  6
Continuous
 62
     1
100
AcDbLine
 10
111.4249999999999
 20
42.2
 30
0.0
 11
111.9874999999999
 21
42.7
 31
0.0
  0
LINE
  5
3FD
330
235
100
AcDbEntity
  8
0
  6
Continuous
 62
     1
100
AcDbLine
 10
111.4249999999999
 20
42.2
 30
0.0
 11
110.9874999999999
 21
42.7
 31
0.0
  0
LINE
  5
3FE
330
235
100
AcDbEntity
  8
0
  6
Continuous
 62
     1
100
AcDbLine
 10
114.9874999999999
 20
42.7
 30
0.0
 11
115.377777778
 21
45.822222222
 31
0.0
  0
LINE
  5
3FF
330
235
100
AcDbEntity
  8
0
  6
Continuous
 62
     1
100
AcDbLine
 10
113.9874999999999
 20
42.7
 30
0.0
 11
114.25
 21
44.79999999999999
 31
0.0
  0
LINE
  5
400
330
235
100
AcDbEntity
  8
0
  6
Continuous
 62
     1
100
AcDbLine
 10
112.1624999999997
 20
42.5
 30
0.0
 11
113.7625
 21
42.5
 31
0.0
  0
LINE
  5
401
330
235
100
AcDbEntity
  8
0
  6
Continuous
 62
     1
100
AcDbLine
 10
113.6375
 20
41.5
 30
0.0
 11
112.0374999999997
 21
41.5
 31
0.0
  0
LINE
  5
402
330
235
100
AcDbEntity
  8
0
  6
Continuous
 62
     1
100
AcDbLine
 10
114.2
 20
42.0
 30
0.0
 11
113.7625
 21
42.5
 31
0.0
  0
LINE
  5
403
330
235
100
AcDbEntity
  8
0
  6
Continuous
 62
     1
100
AcDbLine
 10
113.8125
 20
41.29999999999999
 30
0.0
 11
114.375
 21
41.79999999999997
 31
0.0
  0
LINE
  5
404
330
235
100
AcDbEntity
  8
0
  6
Continuous
 62
     1
100
AcDbLine
 10
113.6375
 20
41.5
 30
0.0
 11
114.2
 21
42.0
 31
0.0
  0
LINE
  5
405
330
235
100
AcDbEntity
  8
0
  6
Continuous
 62
     1
100
AcDbLine
 10
114.4249999999999
 20
42.2
 30
0.0
 11
114.9874999999999
 21
42.7
 31
0.0
  0
LINE
  5
406
330
235
100
AcDbEntity
  8
0
  6
Continuous
 62
     1
100
AcDbLine
 10
114.4249999999999
 20
42.2
 30
0.0
 11
113.9874999999999
 21
42.7
 31
0.0
  0
LINE
  5
407
330
235
100
AcDbEntity
  8
0
  6
Continuous
 62
     1
100
AcDbLine
 10
114.8125
 20
41.29999999999999
 30
0.0
 11
114.375
 21
41.79999999999997
 31
0.0
  0
LINE
  5
408
330
235
100
AcDbEntity
  8
0
  6
Continuous
 62
     1
100
AcDbLine
 10
113.5499999999999
 20
39.2
 30
0.0
 11
113.8125
 21
41.29999999999999
 31
0.0
  0
LINE
  5
409
330
235
100
AcDbEntity
  8
0
  6
Continuous
 62
     1
100
AcDbLine
 10
114.4249999999999
 20
38.2
 30
0.0
 11
114.8125
 21
41.29999999999999
 31
0.0
  0
LINE
  5
40A
330
235
100
AcDbEntity
  8
0
  6
Continuous
 62
     1
100
AcDbLine
 10
114.4249999999999
 20
38.2
 30
0.0
 11
113.5499999999999
 21
39.2
 31
0.0
  0
LINE
  5
40B
330
235
100
AcDbEntity
  8
0
  6
Continuous
 62
     1
100
AcDbLine
 10
111.725
 20
39.0
 30
0.0
 11
113.31625
 21
39.0
 31
0.0
  0
LINE
  5
40C
330
235
100
AcDbEntity
  8
0
  6
Continuous
 62
     1
100
AcDbLine
 10
110.5999999999997
 20
38.0
 30
0.0
 11
114.1912499999999
 21
38.0
 31
0.0
  0
LINE
  5
40D
330
235
100
AcDbEntity
  8
0
  6
Continuous
 62
     1
100
AcDbLine
 10
119.8749999999999
 20
45.0
 30
0.0
 11
119.0
 21
46.0
 31
0.0
  0
LINE
  5
40E
330
235
100
AcDbEntity
  8
0
  6
Continuous
 62
     1
100
AcDbLine
 10
122.5999999999997
 20
46.0
 30
0.0
 11
121.4749999999997
 21
45.0
 31
0.0
  0
LINE
  5
40F
330
235
100
AcDbEntity
  8
0
  6
Continuous
 62
     1
100
AcDbLine
 10
119.1249999999999
 20
39.0
 30
0.0
 11
118.0
 21
38.0
 31
0.0
  0
LINE
  5
410
330
235
100
AcDbEntity
  8
0
  6
Continuous
 62
     1
100
AcDbLine
 10
121.5999999999997
 20
37.99
 30
0.0
 11
120.7249999999997
 21
38.99
 31
0.0
  0
LINE
  5
411
330
235
100
AcDbEntity
  8
0
  6
Continuous
 62
     1
100
AcDbLine
 10
122.7999999999999
 20
45.822222222
 30
0.0
 11
121.65
 21
44.79999999999999
 31
0.0
  0
LINE
  5
412
330
235
100
AcDbEntity
  8
0
  6
Continuous
 62
     1
100
AcDbLine
 10
119.65
 20
44.79999999999999
 30
0.0
 11
118.7999999999999
 21
45.771428571
 31
0.0
  0
LINE
  5
413
330
235
100
AcDbEntity
  8
0
  6
Continuous
 62
     1
100
AcDbLine
 10
121.4749999999997
 20
45.0
 30
0.0
 11
119.8749999999999
 21
45.0
 31
0.0
  0
LINE
  5
414
330
235
100
AcDbEntity
  8
0
  6
Continuous
 62
     1
100
AcDbLine
 10
122.5999999999997
 20
46.0
 30
0.0
 11
119.0
 21
46.0
 31
0.0
  0
LINE
  5
415
330
235
100
AcDbEntity
  8
0
  6
Continuous
 62
     1
100
AcDbLine
 10
119.4374999999999
 20
41.5
 30
0.0
 11
119.0
 21
42.0
 31
0.0
  0
LINE
  5
416
330
235
100
AcDbEntity
  8
0
  6
Continuous
 62
     1
100
AcDbLine
 10
118.775
 20
45.8
 30
0.0
 11
118.3875
 21
42.7
 31
0.0
  0
LINE
  5
417
330
235
100
AcDbEntity
  8
0
  6
Continuous
 62
     1
100
AcDbLine
 10
119.65
 20
44.79999999999999
 30
0.0
 11
119.3875
 21
42.7
 31
0.0
  0
LINE
  5
418
330
235
100
AcDbEntity
  8
0
  6
Continuous
 62
     1
100
AcDbLine
 10
119.0
 20
42.0
 30
0.0
 11
119.5624999999999
 21
42.5
 31
0.0
  0
LINE
  5
419
330
235
100
AcDbEntity
  8
0
  6
Continuous
 62
     1
100
AcDbLine
 10
118.825
 20
42.2
 30
0.0
 11
119.3875
 21
42.7
 31
0.0
  0
LINE
  5
41A
330
235
100
AcDbEntity
  8
0
  6
Continuous
 62
     1
100
AcDbLine
 10
118.825
 20
42.2
 30
0.0
 11
118.3875
 21
42.7
 31
0.0
  0
LINE
  5
41B
330
235
100
AcDbEntity
  8
0
  6
Continuous
 62
     1
100
AcDbLine
 10
122.3875
 20
42.7
 30
0.0
 11
122.7777777779998
 21
45.822222222
 31
0.0
  0
LINE
  5
41C
330
235
100
AcDbEntity
  8
0
  6
Continuous
 62
     1
100
AcDbLine
 10
121.3875
 20
42.7
 30
0.0
 11
121.65
 21
44.79999999999999
 31
0.0
  0
LINE
  5
41D
330
235
100
AcDbEntity
  8
0
  6
Continuous
 62
     1
100
AcDbLine
 10
119.5624999999999
 20
42.5
 30
0.0
 11
121.1624999999997
 21
42.5
 31
0.0
  0
LINE
  5
41E
330
235
100
AcDbEntity
  8
0
  6
Continuous
 62
     1
100
AcDbLine
 10
121.0374999999997
 20
41.5
 30
0.0
 11
119.4374999999999
 21
41.5
 31
0.0
  0
LINE
  5
41F
330
235
100
AcDbEntity
  8
0
  6
Continuous
 62
     1
100
AcDbLine
 10
121.5999999999997
 20
42.0
 30
0.0
 11
121.1624999999997
 21
42.5
 31
0.0
  0
LINE
  5
420
330
235
100
AcDbEntity
  8
0
  6
Continuous
 62
     1
100
AcDbLine
 10
121.2125
 20
41.29999999999999
 30
0.0
 11
121.775
 21
41.79999999999997
 31
0.0
  0
LINE
  5
421
330
235
100
AcDbEntity
  8
0
  6
Continuous
 62
     1
100
AcDbLine
 10
121.0374999999997
 20
41.5
 30
0.0
 11
121.5999999999997
 21
42.0
 31
0.0
  0
LINE
  5
422
330
235
100
AcDbEntity
  8
0
  6
Continuous
 62
     1
100
AcDbLine
 10
121.825
 20
42.2
 30
0.0
 11
122.3875
 21
42.7
 31
0.0
  0
LINE
  5
423
330
235
100
AcDbEntity
  8
0
  6
Continuous
 62
     1
100
AcDbLine
 10
121.825
 20
42.2
 30
0.0
 11
121.3875
 21
42.7
 31
0.0
  0
LINE
  5
424
330
235
100
AcDbEntity
  8
0
  6
Continuous
 62
     1
100
AcDbLine
 10
122.2125
 20
41.29999999999999
 30
0.0
 11
121.775
 21
41.79999999999997
 31
0.0
  0
LINE
  5
425
330
235
100
AcDbEntity
  8
0
  6
Continuous
 62
     1
100
AcDbLine
 10
120.95
 20
39.2
 30
0.0
 11
121.2125
 21
41.29999999999999
 31
0.0
  0
LINE
  5
426
330
235
100
AcDbEntity
  8
0
  6
Continuous
 62
     1
100
AcDbLine
 10
121.825
 20
38.2
 30
0.0
 11
122.2125
 21
41.29999999999999
 31
0.0
  0
LINE
  5
427
330
235
100
AcDbEntity
  8
0
  6
Continuous
 62
     1
100
AcDbLine
 10
121.825
 20
38.2
 30
0.0
 11
120.95
 21
39.2
 31
0.0
  0
LINE
  5
428
330
235
100
AcDbEntity
  8
0
  6
Continuous
 62
     1
100
AcDbLine
 10
119.1249999999999
 20
39.0
 30
0.0
 11
120.71625
 21
39.0
 31
0.0
  0
LINE
  5
429
330
235
100
AcDbEntity
  8
0
  6
Continuous
 62
     1
100
AcDbLine
 10
118.0
 20
38.0
 30
0.0
 11
121.5912499999999
 21
38.0
 31
0.0
  0
LINE
  5
42A
330
235
100
AcDbEntity
  8
0
  6
Continuous
 62
     1
100
AcDbLine
 10
183.4999999999998
 20
143.3
 30
0.0
 11
183.4999999999998
 21
135.8
 31
0.0
  0
ARC
  5
42B
330
235
100
AcDbEntity
  8
0
  6
Continuous
 62
     1
100
AcDbCircle
 10
183.0
 20
143.3
 30
0.0
 40
0.5
100
AcDbArc
 50
0.0
 51
90.0
  0
LINE
  5
42C
330
235
100
AcDbEntity
  8
0
  6
Continuous
 62
     1
100
AcDbLine
 10
181.4999999999997
 20
135.8
 30
0.0
 11
181.4999999999997
 21
143.3
 31
0.0
  0
LINE
  5
42D
330
235
100
AcDbEntity
  8
0
  6
Continuous
 62
     1
100
AcDbLine
 10
182.0
 20
143.8
 30
0.0
 11
183.0
 21
143.8
 31
0.0
  0
ARC
  5
42E
330
235
100
AcDbEntity
  8
0
  6
Continuous
 62
     1
100
AcDbCircle
 10
182.0
 20
143.3
 30
0.0
 40
0.5
100
AcDbArc
 50
90.0
 51
180.0
  0
ENDSEC
  0
SECTION
  2
OBJECTS
  0
DICTIONARY
  5
223
330
0
100
AcDbDictionary
281
     1
  3
ACAD_GROUP
350
224
  3
ACAD_PLOTSTYLENAME
350
225
  3
ACAD_MLINESTYLE
350
22D
  3
ACAD_PLOTSETTINGS
350
22F
  3
ACAD_LAYOUT
350
230
  0
DICTIONARY
  5
224
102
{ACAD_REACTORS
330
223
102
}
330
223
100
AcDbDictionary
281
     1
  0
ACDBDICTIONARYWDFLT
  5
225
102
{ACAD_REACTORS
330
223
102
}
330
223
100
AcDbDictionary
281
     1
  3
Normal
350
226
100
AcDbDictionaryWithDefault
340
226
  0
DICTIONARY
  5
22D
102
{ACAD_REACTORS
330
223
102
}
330
223
100
AcDbDictionary
281
     1
  3
Standard
350
22E
  0
DICTIONARY
  5
22F
102
{ACAD_REACTORS
330
223
102
}
330
223
100
AcDbDictionary
281
     1
  0
DICTIONARY
  5
230
102
{ACAD_REACTORS
330
223
102
}
330
223
100
AcDbDictionary
281
     1
  3
ﾚｲｱｳﾄ1
350
234
  3
Model
350
238
  0
ACDBPLACEHOLDER
  5
226
102
{ACAD_REACTORS
330
225
102
}
330
225
  0
MLINESTYLE
  5
22E
102
{ACAD_REACTORS
330
22D
102
}
330
22D
100
AcDbMlineStyle
  2
STANDARD
 70
     0
  3

 62
   256
 51
90.0
 52
90.0
 71
     2
 49
0.5
 62
   256
  6
BYLAYER
 49
-0.5
 62
   256
  6
BYLAYER
  0
LAYOUT
  5
234
102
{ACAD_REACTORS
330
230
102
}
330
230
100
AcDbPlotSettings
  1

  2
Canon LBP-880
  4

  6

 40
0.0
 41
0.0
 42
0.0
 43
0.0
 44
0.0
 45
0.0
 46
0.0
 47
0.0
 48
0.0
 49
0.0
140
0.0
141
0.0
142
1.0
143
1.0
 70
   688
 72
     0
 73
     0
 74
     5
  7

 75
    16
147
1.0
148
0.0
149
0.0
100
AcDbLayout
  1
ﾚｲｱｳﾄ1
 70
     1
 71
     1
 10
0.0
 20
0.0
 11
12.0
 21
9.0
 12
0.0
 22
0.0
 32
0.0
 14
1.000000000000000E+20
 24
1.000000000000000E+20
 34
1.000000000000000E+20
 15
-1.000000000000000E+20
 25
-1.000000000000000E+20
 35
-1.000000000000000E+20
146
0.0
 13
0.0
 23
0.0
 33
0.0
 16
1.0
 26
0.0
 36
0.0
 17
0.0
 27
1.0
 37
0.0
 76
     0
330
231
  0
LAYOUT
  5
238
102
{ACAD_REACTORS
330
230
102
}
330
230
100
AcDbPlotSettings
  1

  2
Canon LBP-880
  4

  6

 40
0.0
 41
0.0
 42
0.0
 43
0.0
 44
0.0
 45
0.0
 46
0.0
 47
0.0
 48
0.0
 49
0.0
140
0.0
141
0.0
142
1.0
143
1.0
 70
  1712
 72
     0
 73
     0
 74
     0
  7

 75
     0
147
1.0
148
0.0
149
0.0
100
AcDbLayout
  1
Model
 70
     1
 71
     0
 10
0.0
 20
0.0
 11
12.0
 21
9.0
 12
0.0
 22
0.0
 32
0.0
 14
0.0
 24
0.0
 34
0.0
 15
0.0
 25
0.0
 35
0.0
146
0.0
 13
0.0
 23
0.0
 33
0.0
 16
1.0
 26
0.0
 36
0.0
 17
0.0
 27
1.0
 37
0.0
 76
     0
330
235
  0
ENDSEC
  0
EOF
