  0
SECTION
  2
HEADER
  9
$ACADVER
  1
AC1009
  9
$INSBASE
 10
0.0
 20
0.0
 30
0.0
  9
$EXTMIN
 10
-5.9416163741459845E+073
 20
-1.2692639056332951E+099
 30
0.0
  9
$EXTMAX
 10
1.2692639056332951E+099
 20
5.9416163741459845E+073
 30
0.4
  9
$LIMMIN
 10
0.0
 20
0.0
  9
$LIMMAX
 10
12.0
 20
9.0
  9
$ORTHOMODE
 70
     0
  9
$REGENMODE
 70
     1
  9
$FILLMODE
 70
     1
  9
$QTEXTMODE
 70
     0
  9
$MIRRTEXT
 70
     1
  9
$DRAGMODE
 70
     2
  9
$LTSCALE
 40
1.0
  9
$OSMODE
 70
    37
  9
$ATTMODE
 70
     1
  9
$TEXTSIZE
 40
0.2
  9
$TRACEWID
 40
0.05
  9
$TEXTSTYLE
  7
STANDARD
  9
$CLAYER
  8
0
  9
$CELTYPE
  6
CONTINUOUS
  9
$CECOLOR
 62
   256
  9
$DIMSCALE
 40
1.0
  9
$DIMASZ
 40
0.18
  9
$DIMEXO
 40
0.0625
  9
$DIMDLI
 40
0.38
  9
$DIMRND
 40
0.0
  9
$DIMDLE
 40
0.0
  9
$DIMEXE
 40
0.18
  9
$DIMTP
 40
0.0
  9
$DIMTM
 40
0.0
  9
$DIMTXT
 40
0.18
  9
$DIMCEN
 40
0.09
  9
$DIMTSZ
 40
0.0
  9
$DIMTOL
 70
     0
  9
$DIMLIM
 70
     0
  9
$DIMTIH
 70
     1
  9
$DIMTOH
 70
     1
  9
$DIMSE1
 70
     0
  9
$DIMSE2
 70
     0
  9
$DIMTAD
 70
     0
  9
$DIMZIN
 70
     0
  9
$DIMBLK
  1

  9
$DIMASO
 70
     1
  9
$DIMSHO
 70
     1
  9
$DIMPOST
  1

  9
$DIMAPOST
  1

  9
$DIMALT
 70
     0
  9
$DIMALTD
 70
     2
  9
$DIMALTF
 40
25.399999999999999
  9
$DIMLFAC
 40
1.0
  9
$DIMTOFL
 70
     0
  9
$DIMTVP
 40
0.0
  9
$DIMTIX
 70
     0
  9
$DIMSOXD
 70
     0
  9
$DIMSAH
 70
     0
  9
$DIMBLK1
  1

  9
$DIMBLK2
  1

  9
$DIMSTYLE
  2
STANDARD
  9
$DIMCLRD
 70
     0
  9
$DIMCLRE
 70
     0
  9
$DIMCLRT
 70
     0
  9
$DIMTFAC
 40
1.0
  9
$DIMGAP
 40
0.09
  9
$LUNITS
 70
     2
  9
$LUPREC
 70
     4
  9
$SKETCHINC
 40
0.1
  9
$FILLETRAD
 40
0.0
  9
$AUNITS
 70
     0
  9
$AUPREC
 70
     0
  9
$MENU
  1
.
  9
$ELEVATION
 40
0.0
  9
$PELEVATION
 40
0.0
  9
$THICKNESS
 40
0.0
  9
$LIMCHECK
 70
     0
  9
$BLIPMODE
 70
     0
  9
$CHAMFERA
 40
0.0
  9
$CHAMFERB
 40
0.0
  9
$SKPOLY
 70
     0
  9
$TDCREATE
 40
2451956.4839018509
  9
$TDUPDATE
 40
2452153.7095356132
  9
$TDINDWG
 40
0.0114914583
  9
$TDUSRTIMER
 40
0.0114914583
  9
$USRTIMER
 70
     1
  9
$ANGBASE
 50
0.0
  9
$ANGDIR
 70
     0
  9
$PDMODE
 70
     0
  9
$PDSIZE
 40
0.0
  9
$PLINEWID
 40
0.0
  9
$COORDS
 70
     1
  9
$SPLFRAME
 70
     0
  9
$SPLINETYPE
 70
     6
  9
$SPLINESEGS
 70
     8
  9
$ATTDIA
 70
     0
  9
$ATTREQ
 70
     1
  9
$HANDLING
 70
 10241
  9
$HANDSEED
  5
9E8
  9
$SURFTAB1
 70
     6
  9
$SURFTAB2
 70
     6
  9
$SURFTYPE
 70
     6
  9
$SURFU
 70
     6
  9
$SURFV
 70
     6
  9
$UCSNAME
  2

  9
$UCSORG
 10
0.0
 20
0.0
 30
0.0
  9
$UCSXDIR
 10
1.0
 20
0.0
 30
0.0
  9
$UCSYDIR
 10
0.0
 20
1.0
 30
0.0
  9
$PUCSNAME
  2

  9
$PUCSORG
 10
0.0
 20
0.0
 30
0.0
  9
$PUCSXDIR
 10
1.0
 20
0.0
 30
0.0
  9
$PUCSYDIR
 10
0.0
 20
1.0
 30
0.0
  9
$USERI1
 70
     0
  9
$USERI2
 70
     0
  9
$USERI3
 70
     0
  9
$USERI4
 70
     0
  9
$USERI5
 70
     0
  9
$USERR1
 40
0.0
  9
$USERR2
 40
0.0
  9
$USERR3
 40
0.0
  9
$USERR4
 40
0.0
  9
$USERR5
 40
0.0
  9
$WORLDVIEW
 70
     1
  9
$SHADEDGE
 70
     3
  9
$SHADEDIF
 70
    70
  9
$TILEMODE
 70
     1
  9
$MAXACTVP
 70
    64
  9
$PLIMCHECK
 70
     0
  9
$PEXTMIN
 10
1.0000000000000000E+020
 20
1.0000000000000000E+020
 30
1.0000000000000000E+020
  9
$PEXTMAX
 10
-1.0000000000000000E+020
 20
-1.0000000000000000E+020
 30
-1.0000000000000000E+020
  9
$PLIMMIN
 10
0.0
 20
0.0
  9
$PLIMMAX
 10
12.0
 20
9.0
  9
$UNITMODE
 70
     0
  9
$VISRETAIN
 70
     1
  9
$PLINEGEN
 70
     0
  9
$PSLTSCALE
 70
     1
  0
ENDSEC
  0
SECTION
  2
TABLES
  0
TABLE
  2
VPORT
 70
     2
  0
VPORT
  2
*ACTIVE
 70
     0
 10
0.0
 20
0.0
 11
1.0
 21
1.0
 12
127.8517112411936
 22
93.404014100902714
 13
0.0
 23
0.0
 14
1.0
 24
1.0
 15
0.0
 25
0.0
 16
0.0
 26
0.0
 36
1.0
 17
0.0
 27
0.0
 37
0.0
 40
178.6773302677029
 41
1.6666666666666661
 42
50.0
 43
0.0
 44
0.0
 50
0.0
 51
0.0
 71
     0
 72
   100
 73
     1
 74
     1
 75
     0
 76
     0
 77
     0
 78
     0
  0
ENDTAB
  0
TABLE
  2
LTYPE
 70
     4
  0
LTYPE
  2
CONTINUOUS
 70
     0
  3
Solid line
 72
    65
 73
     0
 40
0.0
  0
LTYPE
  2
LTYPE1
 70
     0
  3
HIDDEN
 72
    65
 73
     2
 40
2.0
 49
1.1999999999999991
 49
-0.8
  0
LTYPE
  2
LTYPE2
 70
     0
  3
HIDDEN
 72
    65
 73
     2
 40
3.0
 49
1.8
 49
-1.1999999999999991
  0
LTYPE
  2
LTYPE3
 70
     0
  3
CENTER
 72
    65
 73
     4
 40
10.0
 49
7.0
 49
-1.0
 49
1.0
 49
-1.0
  0
ENDTAB
  0
TABLE
  2
LAYER
 70
   128
  0
LAYER
  2
0
 70
     0
 62
     7
  6
CONTINUOUS
  0
LAYER
  2
1
 70
     0
 62
     7
  6
CONTINUOUS
  0
LAYER
  2
2
 70
     0
 62
     7
  6
CONTINUOUS
  0
LAYER
  2
3
 70
     0
 62
     7
  6
CONTINUOUS
  0
LAYER
  2
4
 70
     0
 62
     7
  6
CONTINUOUS
  0
LAYER
  2
5
 70
     0
 62
     7
  6
CONTINUOUS
  0
LAYER
  2
6
 70
     0
 62
     7
  6
CONTINUOUS
  0
LAYER
  2
7
 70
     0
 62
     7
  6
CONTINUOUS
  0
LAYER
  2
8
 70
     0
 62
     7
  6
CONTINUOUS
  0
LAYER
  2
9
 70
     0
 62
     7
  6
CONTINUOUS
  0
LAYER
  2
10
 70
     0
 62
     7
  6
CONTINUOUS
  0
LAYER
  2
11
 70
     0
 62
     7
  6
CONTINUOUS
  0
LAYER
  2
12
 70
     0
 62
     7
  6
CONTINUOUS
  0
LAYER
  2
13
 70
     0
 62
     7
  6
CONTINUOUS
  0
LAYER
  2
14
 70
     0
 62
     7
  6
CONTINUOUS
  0
LAYER
  2
15
 70
     0
 62
     7
  6
CONTINUOUS
  0
LAYER
  2
16
 70
     0
 62
     7
  6
CONTINUOUS
  0
LAYER
  2
17
 70
     0
 62
     7
  6
CONTINUOUS
  0
LAYER
  2
18
 70
     0
 62
     7
  6
CONTINUOUS
  0
LAYER
  2
19
 70
     0
 62
     7
  6
CONTINUOUS
  0
LAYER
  2
20
 70
     0
 62
     7
  6
CONTINUOUS
  0
LAYER
  2
21
 70
     0
 62
     7
  6
CONTINUOUS
  0
LAYER
  2
22
 70
     0
 62
     7
  6
CONTINUOUS
  0
LAYER
  2
23
 70
     0
 62
     7
  6
CONTINUOUS
  0
LAYER
  2
24
 70
     0
 62
     7
  6
CONTINUOUS
  0
LAYER
  2
25
 70
     0
 62
     7
  6
CONTINUOUS
  0
LAYER
  2
26
 70
     0
 62
     7
  6
CONTINUOUS
  0
LAYER
  2
27
 70
     0
 62
     7
  6
CONTINUOUS
  0
LAYER
  2
28
 70
     0
 62
     7
  6
CONTINUOUS
  0
LAYER
  2
29
 70
     0
 62
     7
  6
CONTINUOUS
  0
LAYER
  2
30
 70
     0
 62
     7
  6
CONTINUOUS
  0
LAYER
  2
31
 70
     0
 62
     7
  6
CONTINUOUS
  0
LAYER
  2
32
 70
     0
 62
     7
  6
CONTINUOUS
  0
LAYER
  2
33
 70
     0
 62
     7
  6
CONTINUOUS
  0
LAYER
  2
34
 70
     0
 62
     7
  6
CONTINUOUS
  0
LAYER
  2
35
 70
     0
 62
     7
  6
CONTINUOUS
  0
LAYER
  2
36
 70
     0
 62
     7
  6
CONTINUOUS
  0
LAYER
  2
37
 70
     0
 62
     7
  6
CONTINUOUS
  0
LAYER
  2
38
 70
     0
 62
     7
  6
CONTINUOUS
  0
LAYER
  2
39
 70
     0
 62
     7
  6
CONTINUOUS
  0
LAYER
  2
40
 70
     0
 62
     7
  6
CONTINUOUS
  0
LAYER
  2
41
 70
     0
 62
     7
  6
CONTINUOUS
  0
LAYER
  2
42
 70
     0
 62
     7
  6
CONTINUOUS
  0
LAYER
  2
43
 70
     0
 62
     7
  6
CONTINUOUS
  0
LAYER
  2
44
 70
     0
 62
     7
  6
CONTINUOUS
  0
LAYER
  2
45
 70
     0
 62
     7
  6
CONTINUOUS
  0
LAYER
  2
46
 70
     0
 62
     7
  6
CONTINUOUS
  0
LAYER
  2
47
 70
     0
 62
     7
  6
CONTINUOUS
  0
LAYER
  2
48
 70
     0
 62
     7
  6
CONTINUOUS
  0
LAYER
  2
49
 70
     0
 62
     7
  6
CONTINUOUS
  0
LAYER
  2
50
 70
     0
 62
     7
  6
CONTINUOUS
  0
LAYER
  2
51
 70
     0
 62
     7
  6
CONTINUOUS
  0
LAYER
  2
52
 70
     0
 62
     7
  6
CONTINUOUS
  0
LAYER
  2
53
 70
     0
 62
     7
  6
CONTINUOUS
  0
LAYER
  2
54
 70
     0
 62
     7
  6
CONTINUOUS
  0
LAYER
  2
55
 70
     0
 62
     7
  6
CONTINUOUS
  0
LAYER
  2
56
 70
     0
 62
     7
  6
CONTINUOUS
  0
LAYER
  2
57
 70
     0
 62
     7
  6
CONTINUOUS
  0
LAYER
  2
58
 70
     0
 62
     7
  6
CONTINUOUS
  0
LAYER
  2
59
 70
     0
 62
     7
  6
CONTINUOUS
  0
LAYER
  2
60
 70
     0
 62
     7
  6
CONTINUOUS
  0
LAYER
  2
61
 70
     0
 62
     7
  6
CONTINUOUS
  0
LAYER
  2
62
 70
     0
 62
     7
  6
CONTINUOUS
  0
LAYER
  2
63
 70
     0
 62
     7
  6
CONTINUOUS
  0
LAYER
  2
64
 70
     0
 62
     7
  6
CONTINUOUS
  0
LAYER
  2
65
 70
     0
 62
     7
  6
CONTINUOUS
  0
LAYER
  2
66
 70
     0
 62
     7
  6
CONTINUOUS
  0
LAYER
  2
67
 70
     0
 62
     7
  6
CONTINUOUS
  0
LAYER
  2
68
 70
     0
 62
     7
  6
CONTINUOUS
  0
LAYER
  2
69
 70
     0
 62
     7
  6
CONTINUOUS
  0
LAYER
  2
70
 70
     0
 62
     7
  6
CONTINUOUS
  0
LAYER
  2
71
 70
     0
 62
     7
  6
CONTINUOUS
  0
LAYER
  2
72
 70
     0
 62
     7
  6
CONTINUOUS
  0
LAYER
  2
73
 70
     0
 62
     7
  6
CONTINUOUS
  0
LAYER
  2
74
 70
     0
 62
     7
  6
CONTINUOUS
  0
LAYER
  2
75
 70
     0
 62
     7
  6
CONTINUOUS
  0
LAYER
  2
76
 70
     0
 62
     7
  6
CONTINUOUS
  0
LAYER
  2
77
 70
     0
 62
     7
  6
CONTINUOUS
  0
LAYER
  2
78
 70
     0
 62
     7
  6
CONTINUOUS
  0
LAYER
  2
79
 70
     0
 62
     7
  6
CONTINUOUS
  0
LAYER
  2
80
 70
     0
 62
     7
  6
CONTINUOUS
  0
LAYER
  2
81
 70
     0
 62
     7
  6
CONTINUOUS
  0
LAYER
  2
82
 70
     0
 62
     7
  6
CONTINUOUS
  0
LAYER
  2
83
 70
     0
 62
     7
  6
CONTINUOUS
  0
LAYER
  2
84
 70
     0
 62
     7
  6
CONTINUOUS
  0
LAYER
  2
85
 70
     0
 62
     7
  6
CONTINUOUS
  0
LAYER
  2
86
 70
     0
 62
     7
  6
CONTINUOUS
  0
LAYER
  2
87
 70
     0
 62
     7
  6
CONTINUOUS
  0
LAYER
  2
88
 70
     0
 62
     7
  6
CONTINUOUS
  0
LAYER
  2
89
 70
     0
 62
     7
  6
CONTINUOUS
  0
LAYER
  2
90
 70
     0
 62
     7
  6
CONTINUOUS
  0
LAYER
  2
91
 70
     0
 62
     7
  6
CONTINUOUS
  0
LAYER
  2
92
 70
     0
 62
     7
  6
CONTINUOUS
  0
LAYER
  2
93
 70
     0
 62
     7
  6
CONTINUOUS
  0
LAYER
  2
94
 70
     0
 62
     7
  6
CONTINUOUS
  0
LAYER
  2
95
 70
     0
 62
     7
  6
CONTINUOUS
  0
LAYER
  2
96
 70
     0
 62
     7
  6
CONTINUOUS
  0
LAYER
  2
97
 70
     0
 62
     7
  6
CONTINUOUS
  0
LAYER
  2
98
 70
     0
 62
     7
  6
CONTINUOUS
  0
LAYER
  2
99
 70
     0
 62
     7
  6
CONTINUOUS
  0
LAYER
  2
100
 70
     0
 62
     7
  6
CONTINUOUS
  0
LAYER
  2
101
 70
     0
 62
     7
  6
CONTINUOUS
  0
LAYER
  2
102
 70
     0
 62
     7
  6
CONTINUOUS
  0
LAYER
  2
103
 70
     0
 62
     7
  6
CONTINUOUS
  0
LAYER
  2
104
 70
     0
 62
     7
  6
CONTINUOUS
  0
LAYER
  2
105
 70
     0
 62
     7
  6
CONTINUOUS
  0
LAYER
  2
106
 70
     0
 62
     7
  6
CONTINUOUS
  0
LAYER
  2
107
 70
     0
 62
     7
  6
CONTINUOUS
  0
LAYER
  2
108
 70
     0
 62
     7
  6
CONTINUOUS
  0
LAYER
  2
109
 70
     0
 62
     7
  6
CONTINUOUS
  0
LAYER
  2
110
 70
     0
 62
     7
  6
CONTINUOUS
  0
LAYER
  2
111
 70
     0
 62
     7
  6
CONTINUOUS
  0
LAYER
  2
112
 70
     0
 62
     7
  6
CONTINUOUS
  0
LAYER
  2
113
 70
     0
 62
     7
  6
CONTINUOUS
  0
LAYER
  2
114
 70
     0
 62
     7
  6
CONTINUOUS
  0
LAYER
  2
115
 70
     0
 62
     7
  6
CONTINUOUS
  0
LAYER
  2
116
 70
     0
 62
     7
  6
CONTINUOUS
  0
LAYER
  2
117
 70
     0
 62
     7
  6
CONTINUOUS
  0
LAYER
  2
118
 70
     0
 62
     7
  6
CONTINUOUS
  0
LAYER
  2
119
 70
     0
 62
     7
  6
CONTINUOUS
  0
LAYER
  2
120
 70
     0
 62
     7
  6
CONTINUOUS
  0
LAYER
  2
121
 70
     0
 62
     7
  6
CONTINUOUS
  0
LAYER
  2
122
 70
     0
 62
     7
  6
CONTINUOUS
  0
LAYER
  2
123
 70
     0
 62
     7
  6
CONTINUOUS
  0
LAYER
  2
124
 70
     0
 62
     7
  6
CONTINUOUS
  0
LAYER
  2
125
 70
     0
 62
     7
  6
CONTINUOUS
  0
LAYER
  2
126
 70
     0
 62
     7
  6
CONTINUOUS
  0
LAYER
  2
127
 70
     0
 62
     7
  6
CONTINUOUS
  0
ENDTAB
  0
TABLE
  2
STYLE
 70
    12
  0
STYLE
  2
STANDARD
 70
     0
 40
0.0
 41
1.0
 50
0.0
 71
     0
 42
0.2
  3
txt
  4

  0
STYLE
  2
KANJI0
 70
     0
 40
1.0
 41
0.7
 50
0.0
 71
     0
 42
1.0
  3
txt.shx
  4
bigfont
  0
STYLE
  2
KANJI1
 70
     0
 40
0.5
 41
0.7
 50
0.0
 71
     0
 42
0.5
  3
txt.shx
  4
bigfont
  0
STYLE
  2
KANJI2
 70
     0
 40
1.5
 41
0.75
 50
0.0
 71
     0
 42
1.5
  3
txt.shx
  4
bigfont
  0
STYLE
  2
KANJI3
 70
     0
 40
3.0
 41
0.925
 50
0.0
 71
     0
 42
3.0
  3
txt.shx
  4
bigfont
  0
STYLE
  2
KANJI4
 70
     0
 40
3.0
 41
0.6
 50
0.0
 71
     0
 42
3.0
  3
txt.shx
  4
bigfont
  0
STYLE
  2
KANJI5
 70
     0
 40
2.2400000000000002
 41
0.925
 50
0.0
 71
     0
 42
2.2400000000000002
  3
txt.shx
  4
bigfont
  0
STYLE
  2
KANJI6
 70
     0
 40
2.399999999999999
 41
0.925
 50
0.0
 71
     0
 42
2.399999999999999
  3
txt.shx
  4
bigfont
  0
STYLE
  2
KANJI7
 70
     0
 40
2.1000000000000001
 41
0.9
 50
0.0
 71
     0
 42
2.1000000000000001
  3
txt.shx
  4
bigfont
  0
STYLE
  2
KANJI8
 70
     0
 40
3.0
 41
0.8
 50
0.0
 71
     0
 42
3.0
  3
txt.shx
  4
bigfont
  0
STYLE
  2
KANJI9
 70
     0
 40
3.0
 41
0.666666667
 50
0.0
 71
     0
 42
3.0
  3
txt.shx
  4
bigfont
  0
STYLE
  2
KANJI10
 70
     0
 40
4.0
 41
0.9
 50
0.0
 71
     0
 42
4.0
  3
txt.shx
  4
bigfont
  0
ENDTAB
  0
TABLE
  2
VIEW
 70
     0
  0
ENDTAB
  0
TABLE
  2
UCS
 70
     0
  0
ENDTAB
  0
TABLE
  2
APPID
 70
     1
  0
APPID
  2
ACAD
 70
     0
  0
ENDTAB
  0
TABLE
  2
DIMSTYLE
 70
     1
  0
DIMSTYLE
  2
STANDARD
 70
     0
  3

  4

  5

  6

  7

 40
1.0
 41
0.18
 42
0.0625
 43
0.38
 44
0.18
 45
0.0
 46
0.0
 47
0.0
 48
0.0
140
0.18
141
0.09
142
0.0
143
25.399999999999999
144
1.0
145
0.0
146
1.0
147
0.09
 71
     0
 72
     0
 73
     1
 74
     1
 75
     0
 76
     0
 77
     0
 78
     0
170
     0
171
     2
172
     0
173
     0
174
     0
175
     0
176
     0
177
     0
178
     0
  0
ENDTAB
  0
ENDSEC
  0
SECTION
  2
BLOCKS
  0
BLOCK
  8
0
  2
$MODEL_SPACE
 70
     0
 10
0.0
 20
0.0
 30
0.0
  3
$MODEL_SPACE
  1

  0
ENDBLK
  5
20
  8
0
  0
BLOCK
 67
     1
  8
0
  2
$PAPER_SPACE
 70
     0
 10
0.0
 20
0.0
 30
0.0
  3
$PAPER_SPACE
  1

  0
ENDBLK
  5
1C
 67
     1
  8
0
  0
ENDSEC
  0
SECTION
  2
ENTITIES
  0
POINT
  5
B2
  8
0
  6
CONTINUOUS
 62
     1
 10
1.2692639056332951E+099
 20
-5.4795364989713911E+072
 30
0.0
  0
POINT
  5
B3
  8
0
  6
CONTINUOUS
 62
     1
 10
1.2692639056332951E+099
 20
-5.4795364989713911E+072
 30
0.0
  0
LINE
  5
B4
  8
0
  6
CONTINUOUS
 62
     1
 10
-5.9416163741459845E+073
 20
0.0
 30
0.0
 11
-5.9416163741459845E+073
 21
0.647047613
 31
0.0
  0
LINE
  5
B5
  8
0
  6
CONTINUOUS
 62
     1
 10
-5.9416163741459845E+073
 20
0.0
 30
0.0
 11
-5.9416163741459845E+073
 21
-0.647047613
 31
0.0
  0
POINT
  5
B6
  8
1
  6
CONTINUOUS
 62
     1
 10
1.2692639056332951E+099
 20
210.0
 30
0.0
  0
POINT
  5
B7
  8
1
  6
CONTINUOUS
 62
     1
 10
1.2692639056332951E+099
 20
210.0
 30
0.0
  0
POINT
  5
B8
  8
1
  6
CONTINUOUS
 62
     1
 10
-5.9416163741459845E+073
 20
210.0
 30
0.0
  0
POINT
  5
B9
  8
1
  6
CONTINUOUS
 62
     1
 10
-5.9416163741459845E+073
 20
210.0
 30
0.0
  0
POINT
  5
BA
  8
1
  6
CONTINUOUS
 62
     1
 10
6.2829853028270678E+099
 20
-1.2692639056332951E+099
 30
0.0
  0
POINT
  5
BB
  8
1
  6
CONTINUOUS
 62
     1
 10
6.2829853028270678E+099
 20
-1.2692639056332951E+099
 30
0.0
  0
POINT
  5
BC
  8
1
  6
CONTINUOUS
 62
     1
 10
-2.9411604779834719E+062
 20
5.9416163741459845E+073
 30
0.0
  0
POINT
  5
BD
  8
1
  6
CONTINUOUS
 62
     1
 10
-2.9411604779834719E+062
 20
5.9416163741459845E+073
 30
0.0
  0
POINT
  5
BE
  8
1
  6
CONTINUOUS
 62
     1
 10
6.2829853028270678E+099
 20
-1.2692639056332951E+099
 30
0.0
  0
POINT
  5
BF
  8
1
  6
CONTINUOUS
 62
     1
 10
6.2829853028270678E+099
 20
-1.2692639056332951E+099
 30
0.0
  0
POINT
  5
C0
  8
1
  6
CONTINUOUS
 62
     1
 10
-2.9411604779834719E+062
 20
5.9416163741459845E+073
 30
0.0
  0
POINT
  5
C1
  8
1
  6
CONTINUOUS
 62
     1
 10
-2.9411604779834719E+062
 20
5.9416163741459845E+073
 30
0.0
  0
POINT
  5
C2
  8
1
  6
CONTINUOUS
 62
     1
 10
1.2692639056332951E+099
 20
210.0
 30
0.0
  0
POINT
  5
C3
  8
1
  6
CONTINUOUS
 62
     1
 10
1.2692639056332951E+099
 20
210.0
 30
0.0
  0
POINT
  5
C4
  8
1
  6
CONTINUOUS
 62
     1
 10
-5.9416163741459845E+073
 20
210.0
 30
0.0
  0
POINT
  5
C5
  8
1
  6
CONTINUOUS
 62
     1
 10
-5.9416163741459845E+073
 20
210.0
 30
0.0
  0
POINT
  5
C6
  8
1
  6
CONTINUOUS
 62
     1
 10
1.2692639056332951E+099
 20
210.0
 30
0.0
  0
POINT
  5
C7
  8
1
  6
CONTINUOUS
 62
     1
 10
1.2692639056332951E+099
 20
210.0
 30
0.0
  0
POINT
  5
C8
  8
1
  6
CONTINUOUS
 62
     1
 10
-5.9416163741459845E+073
 20
210.0
 30
0.0
  0
POINT
  5
C9
  8
1
  6
CONTINUOUS
 62
     1
 10
-5.9416163741459845E+073
 20
210.0
 30
0.0
  0
LINE
  5
CA
  8
0
  6
CONTINUOUS
 62
     1
 10
87.0
 20
52.0
 30
0.0
 11
87.0
 21
32.0
 31
0.0
  0
LINE
  5
CB
  8
0
  6
CONTINUOUS
 62
     1
 10
87.0
 20
32.0
 30
0.0
 11
131.0
 21
32.0
 31
0.0
  0
LINE
  5
CC
  8
0
  6
CONTINUOUS
 62
     1
 10
131.0
 20
32.0
 30
0.0
 11
131.0
 21
52.0
 31
0.0
  0
LINE
  5
CD
  8
0
  6
CONTINUOUS
 62
     1
 10
131.0
 20
52.0
 30
0.0
 11
87.0
 21
52.0
 31
0.0
  0
ARC
  5
CE
  8
0
  6
CONTINUOUS
 62
     1
 10
86.0
 20
53.0
 30
0.0
 40
1.0
 50
90.0
 51
180.0
  0
LINE
  5
CF
  8
0
  6
CONTINUOUS
 62
     1
 10
85.0
 20
53.0
 30
0.0
 11
85.0
 21
31.0
 31
0.0
  0
ARC
  5
D0
  8
0
  6
CONTINUOUS
 62
     1
 10
86.0
 20
31.0
 30
0.0
 40
1.0
 50
180.0
 51
270.0
  0
LINE
  5
D1
  8
0
  6
CONTINUOUS
 62
     1
 10
86.0
 20
30.0
 30
0.0
 11
132.0
 21
30.0
 31
0.0
  0
ARC
  5
D2
  8
0
  6
CONTINUOUS
 62
     1
 10
132.0
 20
31.0
 30
0.0
 40
1.0
 50
270.0
 51
0.0
  0
LINE
  5
D3
  8
0
  6
CONTINUOUS
 62
     1
 10
132.0
 20
54.0
 30
0.0
 11
86.0
 21
54.0
 31
0.0
  0
LINE
  5
D4
  8
0
  6
CONTINUOUS
 62
     1
 10
133.0
 20
31.0
 30
0.0
 11
133.0
 21
53.0
 31
0.0
  0
ARC
  5
D5
  8
0
  6
CONTINUOUS
 62
     1
 10
132.0
 20
53.0
 30
0.0
 40
1.0
 50
0.0
 51
90.0
  0
LINE
  5
D6
  8
0
  6
CONTINUOUS
 62
     1
 10
85.0
 20
47.0
 30
0.0
 11
84.0
 21
47.0
 31
0.0
  0
LINE
  5
D7
  8
0
  6
CONTINUOUS
 62
     1
 10
84.0
 20
47.0
 30
0.0
 11
84.0
 21
37.0
 31
0.0
  0
LINE
  5
D8
  8
0
  6
CONTINUOUS
 62
     1
 10
84.0
 20
37.0
 30
0.0
 11
85.0
 21
37.0
 31
0.0
  0
LINE
  5
D9
  8
0
  6
CONTINUOUS
 62
     1
 10
133.0
 20
37.0
 30
0.0
 11
134.0
 21
37.0
 31
0.0
  0
LINE
  5
DA
  8
0
  6
CONTINUOUS
 62
     1
 10
134.0
 20
37.0
 30
0.0
 11
134.0
 21
47.0
 31
0.0
  0
LINE
  5
DB
  8
0
  6
CONTINUOUS
 62
     1
 10
134.0
 20
47.0
 30
0.0
 11
133.0
 21
47.0
 31
0.0
  0
LINE
  5
DC
  8
0
  6
CONTINUOUS
 62
     1
 10
133.0
 20
84.799999999999997
 30
0.0
 11
85.0
 21
84.799999999999997
 31
0.0
  0
LINE
  5
DD
  8
0
  6
CONTINUOUS
 62
     1
 10
85.0
 20
84.799999999999997
 30
0.0
 11
85.917078567999994
 21
80.398022873000002
 31
0.0
  0
ARC
  5
DE
  8
0
  6
CONTINUOUS
 62
     1
 10
86.406568777999993
 20
80.5
 30
0.0
 40
0.5
 50
191.76828893199999
 51
270.0
  0
LINE
  5
DF
  8
0
  6
CONTINUOUS
 62
     1
 10
132.08292143200001
 20
80.398022873000002
 30
0.0
 11
133.0
 21
84.799999999999997
 31
0.0
  0
LINE
  5
E0
  8
0
  6
CONTINUOUS
 62
     1
 10
86.406568777999993
 20
80.0
 30
0.0
 11
131.59343122199999
 21
80.0
 31
0.0
  0
ARC
  5
E1
  8
0
  6
CONTINUOUS
 62
     1
 10
131.59343122199999
 20
80.5
 30
0.0
 40
0.5
 50
270.0
 51
348.23171106799998
  0
LINE
  5
E2
  8
0
  6
CONTINUOUS
 62
     1
 10
131.0
 20
84.799999999999997
 30
0.0
 11
131.0
 21
134.80000000000001
 31
0.0
  0
ARC
  5
E3
  8
0
  6
CONTINUOUS
 62
     1
 10
130.0
 20
134.80000000000001
 30
0.0
 40
1.0
 50
0.0
 51
90.0
  0
LINE
  5
E4
  8
0
  6
CONTINUOUS
 62
     1
 10
87.0
 20
134.80000000000001
 30
0.0
 11
87.0
 21
84.799999999999997
 31
0.0
  0
LINE
  5
E5
  8
0
  6
CONTINUOUS
 62
     1
 10
130.0
 20
135.80000000000001
 30
0.0
 11
88.0
 21
135.80000000000001
 31
0.0
  0
ARC
  5
E6
  8
0
  6
CONTINUOUS
 62
     1
 10
88.0
 20
134.80000000000001
 30
0.0
 40
1.0
 50
90.0
 51
180.0
  0
LINE
  5
E7
  8
0
  6
CONTINUOUS
 62
     1
 10
131.0
 20
84.799999999999997
 30
0.0
 11
131.49999999999989
 21
84.799999999999997
 31
0.0
  0
LINE
  5
E8
  8
0
  6
CONTINUOUS
 62
     1
 10
131.49999999999989
 20
84.799999999999997
 30
0.0
 11
131.49999999999989
 21
85.799999999999997
 31
0.0
  0
LINE
  5
E9
  8
0
  6
CONTINUOUS
 62
     1
 10
131.49999999999989
 20
85.799999999999997
 30
0.0
 11
132.0
 21
85.799999999999997
 31
0.0
  0
LINE
  5
EA
  8
0
  6
CONTINUOUS
 62
     1
 10
132.0
 20
85.799999999999997
 30
0.0
 11
132.0
 21
86.799999999999983
 31
0.0
  0
LINE
  5
EB
  8
0
  6
CONTINUOUS
 62
     1
 10
132.0
 20
86.799999999999983
 30
0.0
 11
132.49999999999989
 21
86.799999999999983
 31
0.0
  0
LINE
  5
EC
  8
0
  6
CONTINUOUS
 62
     1
 10
132.49999999999989
 20
86.799999999999983
 30
0.0
 11
132.49999999999989
 21
87.799999999999983
 31
0.0
  0
LINE
  5
ED
  8
0
  6
CONTINUOUS
 62
     1
 10
132.49999999999989
 20
87.799999999999983
 30
0.0
 11
133.0
 21
87.799999999999983
 31
0.0
  0
LINE
  5
EE
  8
0
  6
CONTINUOUS
 62
     1
 10
133.0
 20
87.799999999999983
 30
0.0
 11
133.0
 21
88.799999999999997
 31
0.0
  0
LINE
  5
EF
  8
0
  6
CONTINUOUS
 62
     1
 10
133.0
 20
88.799999999999997
 30
0.0
 11
133.49999999999989
 21
88.799999999999997
 31
0.0
  0
LINE
  5
F0
  8
0
  6
CONTINUOUS
 62
     1
 10
133.49999999999989
 20
88.799999999999997
 30
0.0
 11
133.49999999999989
 21
89.799999999999997
 31
0.0
  0
ARC
  5
F1
  8
0
  6
CONTINUOUS
 62
     1
 10
159.8928571429999
 20
101.9785714289999
 30
0.0
 40
29.067172380999999
 50
186.27799825100001
 51
204.77022374200001
  0
LINE
  5
F2
  8
0
  6
CONTINUOUS
 62
     1
 10
86.5
 20
84.799999999999997
 30
0.0
 11
86.5
 21
85.799999999999997
 31
0.0
  0
LINE
  5
F3
  8
0
  6
CONTINUOUS
 62
     1
 10
86.5
 20
85.799999999999997
 30
0.0
 11
86.0
 21
85.799999999999997
 31
0.0
  0
LINE
  5
F4
  8
0
  6
CONTINUOUS
 62
     1
 10
86.0
 20
85.799999999999997
 30
0.0
 11
86.0
 21
86.799999999999983
 31
0.0
  0
LINE
  5
F5
  8
0
  6
CONTINUOUS
 62
     1
 10
86.0
 20
86.799999999999983
 30
0.0
 11
85.5
 21
86.799999999999983
 31
0.0
  0
LINE
  5
F6
  8
0
  6
CONTINUOUS
 62
     1
 10
85.5
 20
86.799999999999983
 30
0.0
 11
85.5
 21
87.799999999999983
 31
0.0
  0
LINE
  5
F7
  8
0
  6
CONTINUOUS
 62
     1
 10
85.5
 20
87.799999999999983
 30
0.0
 11
85.0
 21
87.799999999999983
 31
0.0
  0
LINE
  5
F8
  8
0
  6
CONTINUOUS
 62
     1
 10
85.0
 20
87.799999999999983
 30
0.0
 11
85.0
 21
88.799999999999997
 31
0.0
  0
LINE
  5
F9
  8
0
  6
CONTINUOUS
 62
     1
 10
85.0
 20
88.799999999999997
 30
0.0
 11
84.500000000000014
 21
88.799999999999997
 31
0.0
  0
LINE
  5
FA
  8
0
  6
CONTINUOUS
 62
     1
 10
84.500000000000014
 20
88.799999999999997
 30
0.0
 11
84.500000000000014
 21
89.799999999999997
 31
0.0
  0
ARC
  5
FB
  8
0
  6
CONTINUOUS
 62
     1
 10
58.107142856999999
 20
101.9785714289999
 30
0.0
 40
29.067172380999999
 50
335.22977625800002
 51
353.72200174900001
  0
LINE
  5
FC
  8
0
  6
CONTINUOUS
 62
     1
 10
163.49999999999989
 20
84.799999999999997
 30
0.0
 11
188.49999999999989
 21
84.799999999999997
 31
0.0
  0
LINE
  5
FD
  8
0
  6
CONTINUOUS
 62
     1
 10
188.49999999999989
 20
84.799999999999997
 30
0.0
 11
188.04668718299999
 21
80.448196957999997
 31
0.0
  0
ARC
  5
FE
  8
0
  6
CONTINUOUS
 62
     1
 10
187.54937797900001
 20
80.5
 30
0.0
 40
0.5
 50
270.0
 51
354.053136946
  0
LINE
  5
FF
  8
0
  6
CONTINUOUS
 62
     1
 10
163.95331281700001
 20
80.448196957999997
 30
0.0
 11
163.49999999999989
 21
84.799999999999997
 31
0.0
  0
LINE
  5
100
  8
0
  6
CONTINUOUS
 62
     1
 10
187.54937797900001
 20
80.0
 30
0.0
 11
164.45062202099999
 21
80.0
 31
0.0
  0
ARC
  5
101
  8
0
  6
CONTINUOUS
 62
     1
 10
164.45062202099999
 20
80.5
 30
0.0
 40
0.5
 50
185.946863054
 51
270.0
  0
LINE
  5
102
  8
0
  6
CONTINUOUS
 62
     1
 10
182.0
 20
102.8
 30
0.0
 11
182.0
 21
84.799999999999997
 31
0.0
  0
LINE
  5
103
  8
0
  6
CONTINUOUS
 62
     1
 10
181.0
 20
84.799999999999997
 30
0.0
 11
181.0
 21
102.8
 31
0.0
  0
LINE
  5
104
  8
0
  6
CONTINUOUS
 62
     1
 10
170.0
 20
84.799999999999997
 30
0.0
 11
170.0
 21
102.8
 31
0.0
  0
LINE
  5
105
  8
0
  6
CONTINUOUS
 62
     1
 10
171.0
 20
102.8
 30
0.0
 11
171.0
 21
84.799999999999997
 31
0.0
  0
LINE
  5
106
  8
0
  6
CONTINUOUS
 62
     1
 10
171.0
 20
89.799999999999997
 30
0.0
 11
181.0
 21
89.799999999999997
 31
0.0
  0
LINE
  5
107
  8
0
  6
CONTINUOUS
 62
     1
 10
171.0
 20
88.799999999999997
 30
0.0
 11
181.0
 21
88.799999999999997
 31
0.0
  0
LINE
  5
108
  8
0
  6
CONTINUOUS
 62
     1
 10
181.0
 20
87.799999999999983
 30
0.0
 11
171.0
 21
87.799999999999983
 31
0.0
  0
LINE
  5
109
  8
0
  6
CONTINUOUS
 62
     1
 10
171.0
 20
86.799999999999983
 30
0.0
 11
181.0
 21
86.799999999999983
 31
0.0
  0
LINE
  5
10A
  8
0
  6
CONTINUOUS
 62
     1
 10
181.0
 20
85.799999999999997
 30
0.0
 11
171.0
 21
85.799999999999997
 31
0.0
  0
ARC
  5
10B
  8
0
  6
CONTINUOUS
 62
     1
 10
170.5
 20
102.8
 30
0.0
 40
0.5
 50
0.0
 51
180.0
  0
ARC
  5
10C
  8
0
  6
CONTINUOUS
 62
     1
 10
181.49999999999989
 20
102.8
 30
0.0
 40
0.5
 50
0.0
 51
180.0
  0
ARC
  5
10D
  8
0
  6
CONTINUOUS
 62
     1
 10
166.5
 20
134.80000000000001
 30
0.0
 40
1.0
 50
90.0
 51
180.0
  0
ARC
  5
10E
  8
0
  6
CONTINUOUS
 62
     1
 10
185.5
 20
134.80000000000001
 30
0.0
 40
1.0
 50
0.0
 51
90.0
  0
LINE
  5
10F
  8
0
  6
CONTINUOUS
 62
     1
 10
185.5
 20
135.80000000000001
 30
0.0
 11
166.5
 21
135.80000000000001
 31
0.0
  0
LINE
  5
110
  8
0
  6
CONTINUOUS
 62
     1
 10
186.5
 20
134.80000000000001
 30
0.0
 11
187.0
 21
84.799999999999997
 31
0.0
  0
LINE
  5
111
  8
0
  6
CONTINUOUS
 62
     1
 10
165.0
 20
84.799999999999997
 30
0.0
 11
165.5
 21
134.80000000000001
 31
0.0
  0
LINE
  5
112
  8
0
  6
LTYPE1
 62
     1
 10
179.49999999999989
 20
135.80000000000001
 30
0.0
 11
187.0
 21
135.80000000000001
 31
0.0
  0
LINE
  5
113
  8
0
  6
LTYPE1
 62
     1
 10
185.40000000000001
 20
152.40000000000001
 30
0.0
 11
184.6999999999999
 21
152.40000000000001
 31
0.0
  0
POINT
  5
114
  8
0
  6
CONTINUOUS
 62
     1
 10
1.2692639056332951E+099
 20
-5.4795364989713911E+072
 30
0.0
  0
POINT
  5
115
  8
0
  6
CONTINUOUS
 62
     1
 10
1.2692639056332951E+099
 20
-5.4795364989713911E+072
 30
0.0
  0
LINE
  5
116
  8
0
  6
CONTINUOUS
 62
     1
 10
-5.9416163741459845E+073
 20
0.0
 30
0.0
 11
-5.9416163741459845E+073
 21
0.647047613
 31
0.0
  0
LINE
  5
117
  8
0
  6
CONTINUOUS
 62
     1
 10
-5.9416163741459845E+073
 20
0.0
 30
0.0
 11
-5.9416163741459845E+073
 21
-0.647047613
 31
0.0
  0
POINT
  5
118
  8
0
  6
CONTINUOUS
 62
     1
 10
1.2692639056332951E+099
 20
-5.4795364989713911E+072
 30
0.0
  0
POINT
  5
119
  8
0
  6
CONTINUOUS
 62
     1
 10
1.2692639056332951E+099
 20
-5.4795364989713911E+072
 30
0.0
  0
LINE
  5
11A
  8
0
  6
CONTINUOUS
 62
     1
 10
-5.9416163741459845E+073
 20
0.0
 30
0.0
 11
-5.9416163741459845E+073
 21
0.647047613
 31
0.0
  0
LINE
  5
11B
  8
0
  6
CONTINUOUS
 62
     1
 10
-5.9416163741459845E+073
 20
0.0
 30
0.0
 11
-5.9416163741459845E+073
 21
-0.647047613
 31
0.0
  0
POINT
  5
6B0
  8
0
  6
CONTINUOUS
 62
     1
 10
157.72799999999989
 20
24.207999999999998
 30
0.1875
  0
LINE
  5
6B1
  8
0
  6
CONTINUOUS
 62
     1
 10
124.11199999999999
 20
42.723999999999997
 30
0.0
 11
122.456
 21
42.723999999999997
 31
0.0
  0
LINE
  5
6B2
  8
0
  6
CONTINUOUS
 62
     1
 10
122.384
 20
41.643999999999991
 30
0.0
 11
125.98399999999999
 21
41.643999999999991
 31
0.0
  0
LINE
  5
6B3
  8
0
  6
CONTINUOUS
 62
     1
 10
125.98399999999999
 20
42.868000000000002
 30
0.0
 11
126.92
 21
42.148000000000003
 31
0.0
  0
LINE
  5
6B4
  8
0
  6
CONTINUOUS
 62
     1
 10
125.91200000000001
 20
42.652000000000001
 30
0.0
 11
126.848
 21
41.932000000000002
 31
0.0
  0
LINE
  5
6B5
  8
0
  6
CONTINUOUS
 62
     1
 10
126.848
 20
41.932000000000002
 30
0.0
 11
125.8399999999999
 21
41.643999999999991
 31
0.0
  0
LINE
  5
6B6
  8
0
  6
CONTINUOUS
 62
     1
 10
125.8399999999999
 20
41.427999999999997
 30
0.0
 11
126.92
 21
41.716000000000001
 31
0.0
  0
LINE
  5
6B7
  8
0
  6
CONTINUOUS
 62
     1
 10
122.384
 20
42.723999999999997
 30
0.0
 11
121.44799999999999
 21
42.292000000000002
 31
0.0
  0
LINE
  5
6B8
  8
0
  6
CONTINUOUS
 62
     1
 10
121.44799999999999
 20
42.292000000000002
 30
0.0
 11
122.312
 21
41.643999999999991
 31
0.0
  0
LINE
  5
6B9
  8
0
  6
CONTINUOUS
 62
     1
 10
121.304
 20
42.436
 30
0.0
 11
122.384
 21
43.012
 31
0.0
  0
LINE
  5
6BA
  8
0
  6
CONTINUOUS
 62
     1
 10
125.8399999999999
 20
42.723999999999997
 30
0.0
 11
124.184
 21
42.723999999999997
 31
0.0
  0
LINE
  5
6BB
  8
0
  6
CONTINUOUS
 62
     1
 10
122.88799999999991
 20
45.963999999999999
 30
0.0
 11
122.16799999999991
 21
46.899999999999999
 31
0.0
  0
LINE
  5
6BC
  8
0
  6
CONTINUOUS
 62
     1
 10
122.42675
 20
43.137999999999998
 30
0.0
 11
122.86775
 21
45.945999999999998
 31
0.0
  0
LINE
  5
6BD
  8
0
  6
CONTINUOUS
 62
     1
 10
121.25675
 20
42.417999999999999
 30
0.0
 11
121.87775000000001
 21
46.665999999999997
 31
0.0
  0
LINE
  5
6BE
  8
0
  6
CONTINUOUS
 62
     1
 10
126.44974999999999
 20
45.802
 30
0.0
 11
125.99075000000001
 21
42.850000000000001
 31
0.0
  0
POINT
  5
6BF
  8
0
  6
CONTINUOUS
 62
     1
 10
121.592
 20
37.179999999999993
 30
0.0
  0
LINE
  5
6C0
  8
0
  6
CONTINUOUS
 62
     1
 10
125.336
 20
38.404000000000003
 30
0.0
 11
126.1279999999999
 21
37.611999999999988
 31
0.0
  0
LINE
  5
6C1
  8
0
  6
CONTINUOUS
 62
     1
 10
125.19199999999999
 20
38.259999999999998
 30
0.0
 11
125.98399999999999
 21
37.468000000000004
 31
0.0
  0
LINE
  5
6C2
  8
0
  6
CONTINUOUS
 62
     1
 10
120.872
 20
37.539999999999999
 30
0.0
 11
121.7359999999999
 21
38.188000000000002
 31
0.0
  0
LINE
  5
6C3
  8
0
  6
CONTINUOUS
 62
     1
 10
120.8239999999999
 20
37.468000000000004
 30
0.0
 11
121.01600000000001
 21
37.179999999999993
 31
0.0
  0
LINE
  5
6C4
  8
0
  6
CONTINUOUS
 62
     1
 10
125.19199999999999
 20
38.259999999999998
 30
0.0
 11
121.7359999999999
 21
38.259999999999998
 31
0.0
  0
LINE
  5
6C5
  8
0
  6
CONTINUOUS
 62
     1
 10
126.1279999999999
 20
37.571999999999989
 30
0.0
 11
126.27200000000001
 21
37.68399999999999
 31
0.0
  0
LINE
  5
6C6
  8
0
  6
CONTINUOUS
 62
     1
 10
125.624
 20
37.179999999999993
 30
0.0
 11
125.98399999999999
 21
37.460000000000001
 31
0.0
  0
LINE
  5
6C7
  8
0
  6
CONTINUOUS
 62
     1
 10
125.624
 20
37.179999999999993
 30
0.0
 11
120.944
 21
37.179999999999993
 31
0.0
  0
LINE
  5
6C8
  8
0
  6
CONTINUOUS
 62
     1
 10
126.9267499999999
 20
41.698
 30
0.0
 11
126.33275
 21
37.66599999999999
 31
0.0
  0
LINE
  5
6C9
  8
0
  6
CONTINUOUS
 62
     1
 10
125.732
 20
41.32
 30
0.0
 11
125.372
 21
38.439999999999991
 31
0.0
  0
LINE
  5
6CA
  8
0
  6
CONTINUOUS
 62
     1
 10
123.1039999999999
 20
46.18
 30
0.0
 11
126.4159999999999
 21
46.18
 31
0.0
  0
LINE
  5
6CB
  8
0
  6
CONTINUOUS
 62
     1
 10
123.090909091
 20
46.18
 30
0.0
 11
122.384
 21
47.04399999999999
 31
0.0
  0
LINE
  5
6CC
  8
0
  6
CONTINUOUS
 62
     1
 10
122.096
 20
46.879428570999998
 30
0.0
 11
121.952
 21
46.756
 31
0.0
  0
LINE
  5
6CD
  8
0
  6
CONTINUOUS
 62
     1
 10
122.456
 20
47.188000000000002
 30
0.0
 11
122.384
 21
47.126285713999991
 31
0.0
  0
LINE
  5
6CE
  8
0
  6
CONTINUOUS
 62
     1
 10
115.47199999999999
 20
42.868000000000002
 30
0.0
 11
116.408
 21
42.148000000000003
 31
0.0
  0
LINE
  5
6CF
  8
0
  6
CONTINUOUS
 62
     1
 10
115.40000000000001
 20
42.652000000000001
 30
0.0
 11
116.3359999999999
 21
41.932000000000002
 31
0.0
  0
LINE
  5
6D0
  8
0
  6
CONTINUOUS
 62
     1
 10
116.3359999999999
 20
41.932000000000002
 30
0.0
 11
115.3279999999999
 21
41.643999999999991
 31
0.0
  0
LINE
  5
6D1
  8
0
  6
CONTINUOUS
 62
     1
 10
115.3279999999999
 20
41.427999999999997
 30
0.0
 11
116.408
 21
41.716000000000001
 31
0.0
  0
LINE
  5
6D2
  8
0
  6
CONTINUOUS
 62
     1
 10
115.904
 20
46.18
 30
0.0
 11
116.6239999999999
 21
47.04399999999999
 31
0.0
  0
LINE
  5
6D3
  8
0
  6
CONTINUOUS
 62
     1
 10
116.91200000000001
 20
46.972000000000001
 30
0.0
 11
116.0479999999999
 21
45.891999999999989
 31
0.0
  0
LINE
  5
6D4
  8
0
  6
CONTINUOUS
 62
     1
 10
115.93774999999989
 20
45.802
 30
0.0
 11
115.47875000000001
 21
42.850000000000001
 31
0.0
  0
LINE
  5
6D5
  8
0
  6
CONTINUOUS
 62
     1
 10
117.15275
 20
46.881999999999998
 30
0.0
 11
116.46875
 21
42.130000000000003
 31
0.0
  0
LINE
  5
6D6
  8
0
  6
CONTINUOUS
 62
     1
 10
114.8239999999999
 20
38.404000000000003
 30
0.0
 11
115.616
 21
37.611999999999988
 31
0.0
  0
LINE
  5
6D7
  8
0
  6
CONTINUOUS
 62
     1
 10
115.616
 20
37.571999999999989
 30
0.0
 11
115.76000000000001
 21
37.68399999999999
 31
0.0
  0
LINE
  5
6D8
  8
0
  6
CONTINUOUS
 62
     1
 10
115.11199999999999
 20
37.179999999999993
 30
0.0
 11
115.47199999999999
 21
37.460000000000001
 31
0.0
  0
LINE
  5
6D9
  8
0
  6
CONTINUOUS
 62
     1
 10
116.41475
 20
41.698
 30
0.0
 11
115.82075
 21
37.66599999999999
 31
0.0
  0
LINE
  5
6DA
  8
0
  6
CONTINUOUS
 62
     1
 10
115.22
 20
41.32
 30
0.0
 11
114.86
 21
38.439999999999991
 31
0.0
  0
POINT
  5
6DC
  8
0
  6
CONTINUOUS
 62
     1
 10
116.12
 20
47.259999999999991
 30
0.0
  0
LINE
  5
6DD
  8
0
  6
CONTINUOUS
 62
     1
 10
116.9839999999999
 20
46.982285714
 30
0.0
 11
117.1279999999999
 21
46.899999999999999
 31
0.0
  0
LINE
  5
6DE
  8
0
  6
CONTINUOUS
 62
     1
 10
116.6239999999999
 20
47.188000000000002
 30
0.0
 11
116.6959999999999
 21
47.146857142999998
 31
0.0
  0
LINE
  5
6DF
  8
0
  6
CONTINUOUS
 62
     1
 10
127.496
 20
46.982285714
 30
0.0
 11
127.6399999999999
 21
46.899999999999999
 31
0.0
  0
LINE
  5
6E0
  8
0
  6
CONTINUOUS
 62
     1
 10
127.42400000000001
 20
46.972000000000001
 30
0.0
 11
126.56
 21
45.891999999999989
 31
0.0
  0
LINE
  5
6E1
  8
0
  6
CONTINUOUS
 62
     1
 10
127.6647499999999
 20
46.881999999999998
 30
0.0
 11
126.9807499999999
 21
42.130000000000003
 31
0.0
  0
LINE
  5
6E2
  8
0
  6
CONTINUOUS
 62
     1
 10
126.4159999999999
 20
46.18
 30
0.0
 11
127.1959999999999
 21
47.116
 31
0.0
  0
POINT
  5
6E3
  8
0
  6
CONTINUOUS
 62
     1
 10
126.63200000000001
 20
47.259999999999991
 30
0.0
  0
LINE
  5
6E4
  8
0
  6
CONTINUOUS
 62
     1
 10
122.52799999999991
 20
47.259999999999991
 30
0.0
 11
127.06399999999989
 21
47.259999999999991
 31
0.0
  0
LINE
  5
6E5
  8
0
  6
CONTINUOUS
 62
     1
 10
127.06399999999989
 20
47.229142856999992
 30
0.0
 11
127.208
 21
47.146857142999998
 31
0.0
  0
LINE
  5
6E6
  8
0
  6
CONTINUOUS
 62
     1
 10
110.7447499999999
 20
42.417999999999999
 30
0.0
 11
111.36575000000001
 21
46.665999999999997
 31
0.0
  0
POINT
  5
6E7
  8
0
  6
CONTINUOUS
 62
     1
 10
111.08
 20
37.179999999999993
 30
0.0
  0
LINE
  5
6E8
  8
0
  6
CONTINUOUS
 62
     1
 10
110.3599999999999
 20
37.539999999999999
 30
0.0
 11
111.2239999999999
 21
38.188000000000002
 31
0.0
  0
LINE
  5
6E9
  8
0
  6
CONTINUOUS
 62
     1
 10
110.312
 20
37.468000000000004
 30
0.0
 11
110.504
 21
37.179999999999993
 31
0.0
  0
LINE
  5
6EA
  8
0
  6
CONTINUOUS
 62
     1
 10
113.59999999999989
 20
42.723999999999997
 30
0.0
 11
111.9439999999999
 21
42.723999999999997
 31
0.0
  0
LINE
  5
6EB
  8
0
  6
CONTINUOUS
 62
     1
 10
111.872
 20
41.643999999999991
 30
0.0
 11
115.47199999999999
 21
41.643999999999991
 31
0.0
  0
LINE
  5
6EC
  8
0
  6
CONTINUOUS
 62
     1
 10
111.872
 20
42.723999999999997
 30
0.0
 11
110.93600000000001
 21
42.292000000000002
 31
0.0
  0
LINE
  5
6ED
  8
0
  6
CONTINUOUS
 62
     1
 10
110.93600000000001
 20
42.292000000000002
 30
0.0
 11
111.8
 21
41.643999999999991
 31
0.0
  0
LINE
  5
6EE
  8
0
  6
CONTINUOUS
 62
     1
 10
110.792
 20
42.436
 30
0.0
 11
111.872
 21
43.012
 31
0.0
  0
LINE
  5
6EF
  8
0
  6
CONTINUOUS
 62
     1
 10
115.3279999999999
 20
42.723999999999997
 30
0.0
 11
113.672
 21
42.723999999999997
 31
0.0
  0
LINE
  5
6F0
  8
0
  6
CONTINUOUS
 62
     1
 10
112.5199999999999
 20
46.251999999999988
 30
0.0
 11
111.872
 21
47.04399999999999
 31
0.0
  0
LINE
  5
6F1
  8
0
  6
CONTINUOUS
 62
     1
 10
112.376
 20
45.963999999999999
 30
0.0
 11
111.65599999999991
 21
46.899999999999999
 31
0.0
  0
LINE
  5
6F2
  8
0
  6
CONTINUOUS
 62
     1
 10
111.9147499999999
 20
43.137999999999998
 30
0.0
 11
112.3557499999999
 21
45.945999999999998
 31
0.0
  0
LINE
  5
6F3
  8
0
  6
CONTINUOUS
 62
     1
 10
112.592
 20
46.18
 30
0.0
 11
115.976
 21
46.18
 31
0.0
  0
LINE
  5
6F4
  8
0
  6
CONTINUOUS
 62
     1
 10
114.68000000000001
 20
38.259999999999998
 30
0.0
 11
115.47199999999999
 21
37.468000000000004
 31
0.0
  0
LINE
  5
6F5
  8
0
  6
CONTINUOUS
 62
     1
 10
114.68000000000001
 20
38.259999999999998
 30
0.0
 11
111.2239999999999
 21
38.259999999999998
 31
0.0
  0
LINE
  5
6F6
  8
0
  6
CONTINUOUS
 62
     1
 10
115.11199999999999
 20
37.179999999999993
 30
0.0
 11
110.4319999999999
 21
37.179999999999993
 31
0.0
  0
LINE
  5
6F7
  8
0
  6
CONTINUOUS
 62
     1
 10
111.584
 20
46.879428570999998
 30
0.0
 11
111.44
 21
46.756
 31
0.0
  0
LINE
  5
6F8
  8
0
  6
CONTINUOUS
 62
     1
 10
111.9439999999999
 20
47.188000000000002
 30
0.0
 11
111.872
 21
47.126285713999991
 31
0.0
  0
LINE
  5
6F9
  8
0
  6
CONTINUOUS
 62
     1
 10
112.01600000000001
 20
47.259999999999991
 30
0.0
 11
116.55200000000001
 21
47.259999999999991
 31
0.0
  0
LINE
  5
6FA
  8
0
  6
CONTINUOUS
 62
     1
 10
103.08799999999999
 20
42.723999999999997
 30
0.0
 11
101.432
 21
42.723999999999997
 31
0.0
  0
LINE
  5
6FB
  8
0
  6
CONTINUOUS
 62
     1
 10
101.36
 20
41.643999999999991
 30
0.0
 11
104.95999999999989
 21
41.643999999999991
 31
0.0
  0
LINE
  5
6FC
  8
0
  6
CONTINUOUS
 62
     1
 10
104.95999999999989
 20
42.868000000000002
 30
0.0
 11
105.896
 21
42.148000000000003
 31
0.0
  0
LINE
  5
6FD
  8
0
  6
CONTINUOUS
 62
     1
 10
104.88800000000001
 20
42.652000000000001
 30
0.0
 11
105.824
 21
41.932000000000002
 31
0.0
  0
LINE
  5
6FE
  8
0
  6
CONTINUOUS
 62
     1
 10
105.824
 20
41.932000000000002
 30
0.0
 11
104.8159999999999
 21
41.643999999999991
 31
0.0
  0
LINE
  5
6FF
  8
0
  6
CONTINUOUS
 62
     1
 10
104.8159999999999
 20
41.427999999999997
 30
0.0
 11
105.896
 21
41.716000000000001
 31
0.0
  0
LINE
  5
700
  8
0
  6
CONTINUOUS
 62
     1
 10
101.36
 20
42.723999999999997
 30
0.0
 11
100.42400000000001
 21
42.292000000000002
 31
0.0
  0
LINE
  5
701
  8
0
  6
CONTINUOUS
 62
     1
 10
100.42400000000001
 20
42.292000000000002
 30
0.0
 11
101.288
 21
41.643999999999991
 31
0.0
  0
LINE
  5
702
  8
0
  6
CONTINUOUS
 62
     1
 10
100.28
 20
42.436
 30
0.0
 11
101.36
 21
43.012
 31
0.0
  0
LINE
  5
703
  8
0
  6
CONTINUOUS
 62
     1
 10
104.8159999999999
 20
42.723999999999997
 30
0.0
 11
103.16
 21
42.723999999999997
 31
0.0
  0
LINE
  5
704
  8
0
  6
CONTINUOUS
 62
     1
 10
105.392
 20
46.18
 30
0.0
 11
106.11199999999999
 21
47.04399999999999
 31
0.0
  0
LINE
  5
705
  8
0
  6
CONTINUOUS
 62
     1
 10
106.40000000000001
 20
46.972000000000001
 30
0.0
 11
105.536
 21
45.891999999999989
 31
0.0
  0
LINE
  5
706
  8
0
  6
CONTINUOUS
 62
     1
 10
102.0079999999999
 20
46.251999999999988
 30
0.0
 11
101.36
 21
47.04399999999999
 31
0.0
  0
LINE
  5
707
  8
0
  6
CONTINUOUS
 62
     1
 10
101.8639999999999
 20
45.963999999999999
 30
0.0
 11
101.14399999999991
 21
46.899999999999999
 31
0.0
  0
LINE
  5
708
  8
0
  6
CONTINUOUS
 62
     1
 10
101.40275
 20
43.137999999999998
 30
0.0
 11
101.84375
 21
45.945999999999998
 31
0.0
  0
LINE
  5
709
  8
0
  6
CONTINUOUS
 62
     1
 10
100.23275
 20
42.417999999999999
 30
0.0
 11
100.85375000000001
 21
46.665999999999997
 31
0.0
  0
LINE
  5
70A
  8
0
  6
CONTINUOUS
 62
     1
 10
102.0799999999999
 20
46.18
 30
0.0
 11
105.464
 21
46.18
 31
0.0
  0
LINE
  5
70B
  8
0
  6
CONTINUOUS
 62
     1
 10
105.42574999999989
 20
45.802
 30
0.0
 11
104.96674999999991
 21
42.850000000000001
 31
0.0
  0
LINE
  5
70C
  8
0
  6
CONTINUOUS
 62
     1
 10
106.6407499999999
 20
46.881999999999998
 30
0.0
 11
105.9567499999999
 21
42.130000000000003
 31
0.0
  0
POINT
  5
70D
  8
0
  6
CONTINUOUS
 62
     1
 10
100.5679999999999
 20
37.179999999999993
 30
0.0
  0
LINE
  5
70E
  8
0
  6
CONTINUOUS
 62
     1
 10
104.312
 20
38.404000000000003
 30
0.0
 11
105.1039999999999
 21
37.611999999999988
 31
0.0
  0
LINE
  5
70F
  8
0
  6
CONTINUOUS
 62
     1
 10
104.16799999999991
 20
38.259999999999998
 30
0.0
 11
104.95999999999989
 21
37.468000000000004
 31
0.0
  0
LINE
  5
710
  8
0
  6
CONTINUOUS
 62
     1
 10
99.847999999999985
 20
37.539999999999999
 30
0.0
 11
100.712
 21
38.188000000000002
 31
0.0
  0
LINE
  5
711
  8
0
  6
CONTINUOUS
 62
     1
 10
99.799999999999997
 20
37.468000000000004
 30
0.0
 11
99.992000000000004
 21
37.179999999999993
 31
0.0
  0
LINE
  5
712
  8
0
  6
CONTINUOUS
 62
     1
 10
104.16799999999991
 20
38.259999999999998
 30
0.0
 11
100.712
 21
38.259999999999998
 31
0.0
  0
LINE
  5
713
  8
0
  6
CONTINUOUS
 62
     1
 10
105.1039999999999
 20
37.571999999999989
 30
0.0
 11
105.24799999999991
 21
37.68399999999999
 31
0.0
  0
LINE
  5
714
  8
0
  6
CONTINUOUS
 62
     1
 10
104.59999999999999
 20
37.179999999999993
 30
0.0
 11
104.95999999999989
 21
37.460000000000001
 31
0.0
  0
LINE
  5
715
  8
0
  6
CONTINUOUS
 62
     1
 10
104.59999999999999
 20
37.179999999999993
 30
0.0
 11
99.920000000000002
 21
37.179999999999993
 31
0.0
  0
LINE
  5
716
  8
0
  6
CONTINUOUS
 62
     1
 10
105.90275
 20
41.698
 30
0.0
 11
105.3087499999999
 21
37.66599999999999
 31
0.0
  0
LINE
  5
717
  8
0
  6
CONTINUOUS
 62
     1
 10
104.3479999999999
 20
38.439999999999991
 30
0.0
 11
104.708
 21
41.32
 31
0.0
  0
LINE
  5
71B
  8
0
  6
CONTINUOUS
 62
     1
 10
94.412000000000006
 20
42.868000000000002
 30
0.0
 11
95.347999999999999
 21
42.148000000000003
 31
0.0
  0
LINE
  5
71E
  8
0
  6
CONTINUOUS
 62
     1
 10
94.267999999999986
 20
41.427999999999997
 30
0.0
 11
95.347999999999999
 21
41.716000000000001
 31
0.0
  0
LINE
  5
722
  8
0
  6
CONTINUOUS
 62
     1
 10
95.852000000000004
 20
46.972000000000001
 30
0.0
 11
94.988000000000014
 21
45.891999999999989
 31
0.0
  0
LINE
  5
723
  8
0
  6
CONTINUOUS
 62
     1
 10
94.877750000000006
 20
45.802
 30
0.0
 11
94.418750000000017
 21
42.850000000000001
 31
0.0
  0
LINE
  5
724
  8
0
  6
CONTINUOUS
 62
     1
 10
96.092749999999995
 20
46.881999999999998
 30
0.0
 11
95.408749999999984
 21
42.130000000000003
 31
0.0
  0
LINE
  5
725
  8
0
  6
CONTINUOUS
 62
     1
 10
93.763999999999996
 20
38.404000000000003
 30
0.0
 11
94.555999999999997
 21
37.611999999999988
 31
0.0
  0
LINE
  5
726
  8
0
  6
CONTINUOUS
 62
     1
 10
94.555999999999997
 20
37.571999999999989
 30
0.0
 11
94.700000000000003
 21
37.68399999999999
 31
0.0
  0
LINE
  5
727
  8
0
  6
CONTINUOUS
 62
     1
 10
95.354749999999996
 20
41.698
 30
0.0
 11
94.760749999999987
 21
37.66599999999999
 31
0.0
  0
LINE
  5
728
  8
0
  6
CONTINUOUS
 62
     1
 10
93.799999999999997
 20
38.439999999999991
 30
0.0
 11
94.159999999999997
 21
41.32
 31
0.0
  0
POINT
  5
72A
  8
0
  6
CONTINUOUS
 62
     1
 10
105.6079999999999
 20
47.259999999999991
 30
0.0
  0
LINE
  5
72B
  8
0
  6
CONTINUOUS
 62
     1
 10
101.072
 20
46.879428570999998
 30
0.0
 11
100.9279999999999
 21
46.756
 31
0.0
  0
LINE
  5
72C
  8
0
  6
CONTINUOUS
 62
     1
 10
101.432
 20
47.188000000000002
 30
0.0
 11
101.36
 21
47.126285713999991
 31
0.0
  0
LINE
  5
72D
  8
0
  6
CONTINUOUS
 62
     1
 10
106.47199999999999
 20
46.982285714
 30
0.0
 11
106.6159999999999
 21
46.899999999999999
 31
0.0
  0
LINE
  5
72E
  8
0
  6
CONTINUOUS
 62
     1
 10
106.11199999999999
 20
47.188000000000002
 30
0.0
 11
106.1839999999999
 21
47.146857142999998
 31
0.0
  0
LINE
  5
72F
  8
0
  6
CONTINUOUS
 62
     1
 10
101.50399999999991
 20
47.259999999999991
 30
0.0
 11
106.04000000000001
 21
47.259999999999991
 31
0.0
  0
LINE
  5
730
  8
0
  6
CONTINUOUS
 62
     1
 10
95.923999999999992
 20
46.982285714
 30
0.0
 11
96.067999999999984
 21
46.899999999999999
 31
0.0
  0
LINE
  5
731
  8
2
  6
CONTINUOUS
 62
     4
 10
67.200000000000003
 20
153.0
 30
0.0
 11
66.811771432
 21
151.55111126099999
 31
0.0
  0
LINE
  5
732
  8
2
  6
CONTINUOUS
 62
     4
 10
67.200000000000003
 20
153.0
 30
0.0
 11
67.588228568000005
 21
151.55111126099999
 31
0.0
  0
LINE
  5
733
  8
2
  6
CONTINUOUS
 62
     4
 10
87.700000000000017
 20
153.0
 30
0.0
 11
66.200000000000003
 21
153.0
 31
0.0
  0
TEXT
  5
734
  8
2
  6
CONTINUOUS
 62
     4
 10
65.443067516223493
 20
116.8968179477146
 30
0.0
 40
3.0
  1
73
 50
90.0
 41
0.925
  7
KANJI3
  0
TEXT
  5
735
  8
0
  6
CONTINUOUS
 62
     4
 10
75.838023681280887
 20
109.6050473161158
 30
0.3
 40
3.0
  1
51
 50
90.0
 41
0.6
  7
KANJI4
  0
LINE
  5
736
  8
0
  6
CONTINUOUS
 62
     4
 10
77.0
 20
135.80000000000001
 30
0.3
 11
76.352952387000002
 21
133.38518543399991
 31
0.3
  0
LINE
  5
737
  8
0
  6
CONTINUOUS
 62
     4
 10
77.0
 20
135.80000000000001
 30
0.0
 11
77.647047612999984
 21
133.38518543399991
 31
0.0
  0
LINE
  5
738
  8
0
  6
CONTINUOUS
 62
     4
 10
87.0
 20
135.80000000000001
 30
0.0
 11
79.0
 21
135.80000000000001
 31
0.0
  0
LINE
  5
739
  8
0
  6
CONTINUOUS
 62
     4
 10
87.0
 20
135.80000000000001
 30
0.0
 11
75.0
 21
135.80000000000001
 31
0.0
  0
LINE
  5
749
  8
0
  6
CONTINUOUS
 62
     4
 10
87.0
 20
84.799999999999997
 30
0.0
 11
91.0
 21
95.799999999999997
 31
0.0
  0
LINE
  5
74A
  8
0
  6
CONTINUOUS
 62
     4
 10
90.599999999999994
 20
94.799999999999997
 30
0.0
 11
92.53185165299999
 21
94.282361910000006
 31
0.0
  0
LINE
  5
74B
  8
0
  6
CONTINUOUS
 62
     4
 10
90.599999999999994
 20
94.799999999999997
 30
0.0
 11
92.53185165299999
 21
95.317638090000003
 31
0.0
  0
TEXT
  5
74C
  8
0
  6
CONTINUOUS
 62
     4
 10
110.89999999999991
 20
95.799999999999997
 30
0.3
 40
3.0
  1
45
 41
0.6
  7
KANJI4
  0
LINE
  5
74D
  8
0
  6
CONTINUOUS
 62
     4
 10
131.0
 20
84.799999999999997
 30
0.3
 11
135.0
 21
95.799999999999997
 31
0.3
  0
LINE
  5
74E
  8
0
  6
CONTINUOUS
 62
     4
 10
134.59999999999991
 20
94.799999999999997
 30
0.0
 11
132.668148347
 21
95.317638090000003
 31
0.0
  0
LINE
  5
74F
  8
0
  6
CONTINUOUS
 62
     4
 10
134.59999999999991
 20
94.799999999999997
 30
0.0
 11
132.668148347
 21
94.282361910000006
 31
0.0
  0
LINE
  5
750
  8
0
  6
CONTINUOUS
 62
     4
 10
134.59999999999991
 20
94.799999999999997
 30
0.0
 11
90.599999999999994
 21
94.799999999999997
 31
0.0
  0
TEXT
  5
751
  8
0
  6
CONTINUOUS
 62
     4
 10
75.224540161143508
 20
71.783171510358827
 30
0.3
 40
3.0
  1
4.8
 50
90.0
 41
0.6
  7
KANJI4
  0
LINE
  5
752
  8
0
  6
CONTINUOUS
 62
     4
 10
77.0
 20
84.799999999999997
 30
0.3
 11
77.647047612999984
 21
87.214814566000015
 31
0.3
  0
LINE
  5
753
  8
0
  6
CONTINUOUS
 62
     4
 10
77.0
 20
84.799999999999997
 30
0.0
 11
76.352952387000002
 21
87.214814566000015
 31
0.0
  0
LINE
  5
754
  8
0
  6
CONTINUOUS
 62
     4
 10
77.0
 20
84.799999999999997
 30
0.0
 11
79.0
 21
84.799999999999997
 31
0.0
  0
LINE
  5
755
  8
0
  6
CONTINUOUS
 62
     4
 10
85.0
 20
80.0
 30
0.0
 11
75.0
 21
80.0
 31
0.0
  0
LINE
  5
756
  8
0
  6
CONTINUOUS
 62
     4
 10
77.0
 20
80.0
 30
0.0
 11
76.352952387000002
 21
77.585185433999996
 31
0.0
  0
LINE
  5
757
  8
0
  6
CONTINUOUS
 62
     4
 10
77.0
 20
80.0
 30
0.0
 11
77.647047612999984
 21
77.585185433999996
 31
0.0
  0
LINE
  5
758
  8
0
  6
CONTINUOUS
 62
     4
 10
77.0
 20
69.0
 30
0.0
 11
77.0
 21
89.799999999999997
 31
0.0
  0
LINE
  5
759
  8
0
  6
CONTINUOUS
 62
     4
 10
77.0
 20
84.799999999999997
 30
0.0
 11
77.647047612999984
 21
87.214814566000015
 31
0.0
  0
LINE
  5
75A
  8
0
  6
CONTINUOUS
 62
     4
 10
77.0
 20
84.799999999999997
 30
0.0
 11
76.352952387000002
 21
87.214814566000015
 31
0.0
  0
LINE
  5
75B
  8
0
  6
CONTINUOUS
 62
     4
 10
85.0
 20
84.799999999999997
 30
0.0
 11
75.0
 21
84.799999999999997
 31
0.0
  0
LINE
  5
75C
  8
2
  6
CONTINUOUS
 62
     4
 10
85.700000000000003
 20
80.0
 30
0.0
 11
66.200000000000003
 21
80.0
 31
0.0
  0
LINE
  5
75D
  8
2
  6
CONTINUOUS
 62
     4
 10
67.200000000000003
 20
80.0
 30
0.0
 11
67.588228568000005
 21
81.448888738999983
 31
0.0
  0
LINE
  5
75E
  8
2
  6
CONTINUOUS
 62
     4
 10
67.200000000000003
 20
80.0
 30
0.0
 11
66.811771432
 21
81.448888738999983
 31
0.0
  0
LINE
  5
75F
  8
2
  6
CONTINUOUS
 62
     4
 10
67.200000000000003
 20
80.0
 30
0.0
 11
67.200000000000003
 21
153.0
 31
0.0
  0
LINE
  5
760
  8
0
  6
CONTINUOUS
 62
     4
 10
77.0
 20
135.80000000000001
 30
0.0
 11
77.0
 21
84.799999999999997
 31
0.0
  0
TEXT
  5
761
  8
0
  6
CONTINUOUS
 62
     4
 10
75.531383930443553
 20
41.846192949541731
 30
0.3
 40
3.0
  1
24
 50
90.0
 41
0.6
  7
KANJI4
  0
LINE
  5
762
  8
0
  6
CONTINUOUS
 62
     4
 10
85.0
 20
30.0
 30
0.3
 11
75.0
 21
30.0
 31
0.3
  0
LINE
  5
763
  8
0
  6
CONTINUOUS
 62
     4
 10
77.0
 20
30.0
 30
0.0
 11
77.647047612999984
 21
32.41481456599999
 31
0.0
  0
LINE
  5
764
  8
0
  6
CONTINUOUS
 62
     4
 10
77.0
 20
30.0
 30
0.0
 11
76.352952387000002
 21
32.41481456599999
 31
0.0
  0
LINE
  5
765
  8
0
  6
CONTINUOUS
 62
     4
 10
77.0
 20
30.0
 30
0.0
 11
77.0
 21
54.0
 31
0.0
  0
LINE
  5
766
  8
0
  6
CONTINUOUS
 62
     4
 10
77.0
 20
54.0
 30
0.0
 11
76.352952387000002
 21
51.585185433999989
 31
0.0
  0
LINE
  5
767
  8
0
  6
CONTINUOUS
 62
     4
 10
77.0
 20
54.0
 30
0.0
 11
77.647047612999984
 21
51.585185433999989
 31
0.0
  0
LINE
  5
768
  8
0
  6
CONTINUOUS
 62
     4
 10
85.0
 20
54.0
 30
0.0
 11
75.0
 21
54.0
 31
0.0
  0
TEXT
  5
769
  8
0
  6
CONTINUOUS
 62
     4
 10
107.05
 20
19.0
 30
0.3
 40
3.0
  1
48
 41
0.6
  7
KANJI4
  0
LINE
  5
76A
  8
0
  6
CONTINUOUS
 62
     4
 10
85.0
 20
30.0
 30
0.3
 11
85.0
 21
16.0
 31
0.3
  0
LINE
  5
76B
  8
0
  6
CONTINUOUS
 62
     4
 10
85.0
 20
18.0
 30
0.0
 11
87.414814566000004
 21
17.352952386999998
 31
0.0
  0
LINE
  5
76C
  8
0
  6
CONTINUOUS
 62
     4
 10
85.0
 20
18.0
 30
0.0
 11
87.414814566000004
 21
18.647047612999991
 31
0.0
  0
LINE
  5
76D
  8
0
  6
CONTINUOUS
 62
     4
 10
85.0
 20
18.0
 30
0.0
 11
133.0
 21
18.0
 31
0.0
  0
LINE
  5
76E
  8
0
  6
CONTINUOUS
 62
     4
 10
133.0
 20
18.0
 30
0.0
 11
130.58518543400001
 21
18.647047612999991
 31
0.0
  0
LINE
  5
76F
  8
0
  6
CONTINUOUS
 62
     4
 10
133.0
 20
18.0
 30
0.0
 11
130.58518543400001
 21
17.352952386999998
 31
0.0
  0
LINE
  5
770
  8
0
  6
CONTINUOUS
 62
     4
 10
133.0
 20
30.0
 30
0.0
 11
133.0
 21
16.0
 31
0.0
  0
LINE
  5
772
  8
0
  6
CONTINUOUS
 62
     4
 10
184.1999999999999
 20
152.40000000000001
 30
0.0
 11
152.38
 21
152.40000000000001
 31
0.0
  0
LINE
  5
773
  8
0
  6
CONTINUOUS
 62
     4
 10
153.38
 20
152.40000000000001
 30
0.0
 11
152.86236191
 21
150.46814834700001
 31
0.0
  0
LINE
  5
774
  8
0
  6
CONTINUOUS
 62
     4
 10
153.38
 20
152.40000000000001
 30
0.0
 11
153.8976380899999
 21
150.46814834700001
 31
0.0
  0
TEXT
  5
775
  8
0
  6
CONTINUOUS
 62
     4
 10
152.17542019944631
 20
118.0978680873377
 30
0.3
 40
3.0
  1
73
 50
90.0
 41
0.6
  7
KANJI4
  0
LINE
  5
776
  8
0
  6
CONTINUOUS
 62
     4
 10
163.0
 20
80.0
 30
0.3
 11
152.38
 21
80.0
 31
0.3
  0
LINE
  5
777
  8
0
  6
CONTINUOUS
 62
     4
 10
153.38
 20
80.0
 30
0.0
 11
153.8976380899999
 21
81.931851652999995
 31
0.0
  0
LINE
  5
778
  8
0
  6
CONTINUOUS
 62
     4
 10
153.38
 20
80.0
 30
0.0
 11
152.86236191
 21
81.931851652999995
 31
0.0
  0
LINE
  5
779
  8
0
  6
CONTINUOUS
 62
     4
 10
153.38
 20
152.40000000000001
 30
0.0
 11
153.38
 21
80.0
 31
0.0
  0
TEXT
  5
77A
  8
0
  6
CONTINUOUS
 62
     4
 10
160.09999999999991
 20
95.799999999999997
 30
0.3
 40
3.0
  1
22
 41
0.6
  7
KANJI4
  0
LINE
  5
77B
  8
0
  6
CONTINUOUS
 62
     4
 10
165.0
 20
84.799999999999997
 30
0.3
 11
169.0
 21
95.799999999999997
 31
0.3
  0
LINE
  5
77C
  8
0
  6
CONTINUOUS
 62
     4
 10
168.5
 20
94.799999999999997
 30
0.0
 11
166.568148347
 21
94.282361910000006
 31
0.0
  0
LINE
  5
77D
  8
0
  6
CONTINUOUS
 62
     4
 10
168.5
 20
94.799999999999997
 30
0.0
 11
166.568148347
 21
95.317638090000003
 31
0.0
  0
LINE
  5
77E
  8
0
  6
CONTINUOUS
 62
     4
 10
160.09999999999991
 20
94.799999999999997
 30
0.0
 11
168.5
 21
94.799999999999997
 31
0.0
  0
LINE
  5
77F
  8
0
  6
CONTINUOUS
 62
     4
 10
187.0
 20
84.799999999999997
 30
0.0
 11
191.0
 21
95.799999999999997
 31
0.0
  0
LINE
  5
780
  8
0
  6
CONTINUOUS
 62
     4
 10
190.5
 20
94.799999999999997
 30
0.0
 11
193.5
 21
94.799999999999997
 31
0.0
  0
LINE
  5
781
  8
0
  6
CONTINUOUS
 62
     4
 10
190.5
 20
94.799999999999997
 30
0.0
 11
192.431851653
 21
94.282361910000006
 31
0.0
  0
LINE
  5
782
  8
0
  6
CONTINUOUS
 62
     4
 10
190.5
 20
94.799999999999997
 30
0.0
 11
192.431851653
 21
95.317638090000003
 31
0.0
  0
LINE
  5
783
  8
0
  6
CONTINUOUS
 62
     4
 10
168.5
 20
94.799999999999997
 30
0.0
 11
190.5
 21
94.799999999999997
 31
0.0
  0
LINE
  5
7B0
  8
0
  6
CONTINUOUS
 62
     1
 10
179.49999999999989
 20
135.80000000000001
 30
0.4
 11
179.49999999999989
 21
145.80000000000001
 31
0.4
  0
LINE
  5
7B1
  8
0
  6
CONTINUOUS
 62
     1
 10
187.0
 20
135.80000000000001
 30
0.0
 11
187.0
 21
145.80000000000001
 31
0.0
  0
LINE
  5
7B2
  8
0
  6
CONTINUOUS
 62
     1
 10
179.49999999999989
 20
145.80000000000001
 30
0.0
 11
187.0
 21
145.80000000000001
 31
0.0
  0
LINE
  5
7B3
  8
0
  6
CONTINUOUS
 62
     1
 10
184.6999999999999
 20
152.40000000000001
 30
0.0
 11
184.6999999999999
 21
145.80000000000001
 31
0.0
  0
LINE
  5
7B4
  8
0
  6
CONTINUOUS
 62
     1
 10
185.40000000000001
 20
145.80000000000001
 30
0.0
 11
185.40000000000001
 21
152.40000000000001
 31
0.0
  0
LINE
  5
958
  8
0
  6
CONTINUOUS
 62
     4
 10
86.979600723920157
 20
135.7209441533108
 30
0.0
 11
90.979600723920157
 21
141.7209441533108
 31
0.0
  0
LINE
  5
959
  8
0
  6
CONTINUOUS
 62
     4
 10
134.9796007239201
 20
141.2209441533108
 30
0.0
 11
90.479600723920143
 21
141.2209441533108
 31
0.0
  0
LINE
  5
95A
  8
0
  6
CONTINUOUS
 62
     4
 10
90.479600723920143
 20
141.2209441533108
 30
0.0
 11
91.979600723920157
 21
141.7209441533108
 31
0.0
  0
LINE
  5
95B
  8
0
  6
CONTINUOUS
 62
     4
 10
91.979600723920157
 20
140.7209441533108
 30
0.0
 11
90.479600723920143
 21
141.2209441533108
 31
0.0
  0
TEXT
  5
95C
  8
0
  6
CONTINUOUS
 62
     4
 10
111.57960072392009
 20
141.82094415331079
 30
0.0
 40
2.0
  1
44
 41
0.75
  7
KANJI0
  0
LINE
  5
95D
  8
0
  6
CONTINUOUS
 62
     1
 10
86.979600723920157
 20
135.7209441533108
 30
0.0
 11
130.9796007239201
 21
135.7209441533108
 31
0.0
  0
LINE
  5
95E
  8
0
  6
CONTINUOUS
 62
     1
 10
86.979600723920157
 20
135.7209441533108
 30
0.0
 11
85.979600723920157
 21
135.7209441533108
 31
0.0
  0
LINE
  5
95F
  8
0
  6
CONTINUOUS
 62
     1
 10
85.979600723920157
 20
135.7209441533108
 30
0.0
 11
85.979600723920157
 21
147.52094415331081
 31
0.0
  0
LINE
  5
960
  8
0
  6
CONTINUOUS
 62
     1
 10
85.979600723920157
 20
147.52094415331081
 30
0.0
 11
88.979600723920143
 21
147.52094415331081
 31
0.0
  0
LINE
  5
961
  8
0
  6
CONTINUOUS
 62
     1
 10
88.979600723920143
 20
147.52094415331081
 30
0.0
 11
88.979600723920143
 21
147.02094415331081
 31
0.0
  0
LINE
  5
962
  8
0
  6
CONTINUOUS
 62
     1
 10
88.979600723920143
 20
147.02094415331081
 30
0.0
 11
128.9796007239201
 21
147.02094415331081
 31
0.0
  0
LINE
  5
963
  8
0
  6
CONTINUOUS
 62
     1
 10
128.9796007239201
 20
147.02094415331081
 30
0.0
 11
128.9796007239201
 21
147.52094415331081
 31
0.0
  0
LINE
  5
964
  8
0
  6
CONTINUOUS
 62
     1
 10
128.9796007239201
 20
147.52094415331081
 30
0.0
 11
131.9796007239201
 21
147.52094415331081
 31
0.0
  0
LINE
  5
965
  8
0
  6
CONTINUOUS
 62
     1
 10
131.9796007239201
 20
147.52094415331081
 30
0.0
 11
131.9796007239201
 21
135.7209441533108
 31
0.0
  0
LINE
  5
966
  8
0
  6
CONTINUOUS
 62
     1
 10
131.9796007239201
 20
135.7209441533108
 30
0.0
 11
130.9796007239201
 21
135.7209441533108
 31
0.0
  0
LINE
  5
967
  8
0
  6
CONTINUOUS
 62
     1
 10
109.9796007239201
 20
147.02094415331081
 30
0.0
 11
109.9796007239201
 21
152.02094415331081
 31
0.0
  0
LINE
  5
968
  8
0
  6
CONTINUOUS
 62
     1
 10
109.9796007239201
 20
152.02094415331081
 30
0.0
 11
111.9796007239201
 21
152.02094415331081
 31
0.0
  0
LINE
  5
969
  8
0
  6
CONTINUOUS
 62
     1
 10
111.9796007239201
 20
152.02094415331081
 30
0.0
 11
111.9796007239201
 21
147.02094415331081
 31
0.0
  0
ARC
  5
96A
  8
0
  6
CONTINUOUS
 62
     1
 10
110.9796007239201
 20
150.52094415331081
 30
0.0
 40
0.5
 50
0.0
 51
180.0
  0
ARC
  5
96B
  8
0
  6
CONTINUOUS
 62
     1
 10
110.9796007239201
 20
149.52094415331081
 30
0.0
 40
0.5
 50
180.0
 51
0.0
  0
LINE
  5
96C
  8
0
  6
CONTINUOUS
 62
     1
 10
110.4796007239201
 20
150.52094415331081
 30
0.0
 11
110.4796007239201
 21
149.52094415331081
 31
0.0
  0
LINE
  5
96D
  8
0
  6
CONTINUOUS
 62
     1
 10
111.4796007239201
 20
149.52094415331081
 30
0.0
 11
111.4796007239201
 21
150.52094415331081
 31
0.0
  0
LINE
  5
96E
  8
0
  6
CONTINUOUS
 62
     1
 10
113.9796007239201
 20
147.02094415331081
 30
0.0
 11
113.9796007239201
 21
152.02094415331081
 31
0.0
  0
LINE
  5
96F
  8
0
  6
CONTINUOUS
 62
     1
 10
113.9796007239201
 20
152.02094415331081
 30
0.0
 11
115.9796007239201
 21
152.02094415331081
 31
0.0
  0
LINE
  5
970
  8
0
  6
CONTINUOUS
 62
     1
 10
115.9796007239201
 20
152.02094415331081
 30
0.0
 11
115.9796007239201
 21
147.02094415331081
 31
0.0
  0
ARC
  5
971
  8
0
  6
CONTINUOUS
 62
     1
 10
114.9796007239201
 20
150.52094415331081
 30
0.0
 40
0.5
 50
0.0
 51
180.0
  0
ARC
  5
972
  8
0
  6
CONTINUOUS
 62
     1
 10
114.9796007239201
 20
149.52094415331081
 30
0.0
 40
0.5
 50
180.0
 51
0.0
  0
LINE
  5
973
  8
0
  6
CONTINUOUS
 62
     1
 10
114.4796007239201
 20
150.52094415331081
 30
0.0
 11
114.4796007239201
 21
149.52094415331081
 31
0.0
  0
LINE
  5
974
  8
0
  6
CONTINUOUS
 62
     1
 10
115.4796007239201
 20
149.52094415331081
 30
0.0
 11
115.4796007239201
 21
150.52094415331081
 31
0.0
  0
LINE
  5
975
  8
0
  6
CONTINUOUS
 62
     1
 10
117.9796007239201
 20
147.02094415331081
 30
0.0
 11
117.9796007239201
 21
152.02094415331081
 31
0.0
  0
LINE
  5
976
  8
0
  6
CONTINUOUS
 62
     1
 10
117.9796007239201
 20
152.02094415331081
 30
0.0
 11
119.9796007239201
 21
152.02094415331081
 31
0.0
  0
LINE
  5
977
  8
0
  6
CONTINUOUS
 62
     1
 10
119.9796007239201
 20
152.02094415331081
 30
0.0
 11
119.9796007239201
 21
147.02094415331081
 31
0.0
  0
ARC
  5
978
  8
0
  6
CONTINUOUS
 62
     1
 10
118.9796007239201
 20
150.52094415331081
 30
0.0
 40
0.5
 50
0.0
 51
180.0
  0
ARC
  5
979
  8
0
  6
CONTINUOUS
 62
     1
 10
118.9796007239201
 20
149.52094415331081
 30
0.0
 40
0.5
 50
180.0
 51
0.0
  0
LINE
  5
97A
  8
0
  6
CONTINUOUS
 62
     1
 10
118.4796007239201
 20
150.52094415331081
 30
0.0
 11
118.4796007239201
 21
149.52094415331081
 31
0.0
  0
LINE
  5
97B
  8
0
  6
CONTINUOUS
 62
     1
 10
119.4796007239201
 20
149.52094415331081
 30
0.0
 11
119.4796007239201
 21
150.52094415331081
 31
0.0
  0
LINE
  5
97C
  8
0
  6
CONTINUOUS
 62
     1
 10
121.9796007239201
 20
147.02094415331081
 30
0.0
 11
121.9796007239201
 21
152.02094415331081
 31
0.0
  0
LINE
  5
97D
  8
0
  6
CONTINUOUS
 62
     1
 10
121.9796007239201
 20
152.02094415331081
 30
0.0
 11
123.9796007239201
 21
152.02094415331081
 31
0.0
  0
LINE
  5
97E
  8
0
  6
CONTINUOUS
 62
     1
 10
123.9796007239201
 20
152.02094415331081
 30
0.0
 11
123.9796007239201
 21
147.02094415331081
 31
0.0
  0
ARC
  5
97F
  8
0
  6
CONTINUOUS
 62
     1
 10
122.9796007239201
 20
150.52094415331081
 30
0.0
 40
0.5
 50
0.0
 51
180.0
  0
ARC
  5
980
  8
0
  6
CONTINUOUS
 62
     1
 10
122.9796007239201
 20
149.52094415331081
 30
0.0
 40
0.5
 50
180.0
 51
0.0
  0
LINE
  5
981
  8
0
  6
CONTINUOUS
 62
     1
 10
122.4796007239201
 20
150.52094415331081
 30
0.0
 11
122.4796007239201
 21
149.52094415331081
 31
0.0
  0
LINE
  5
982
  8
0
  6
CONTINUOUS
 62
     1
 10
123.4796007239201
 20
149.52094415331081
 30
0.0
 11
123.4796007239201
 21
150.52094415331081
 31
0.0
  0
LINE
  5
983
  8
0
  6
CONTINUOUS
 62
     1
 10
125.9796007239201
 20
147.02094415331081
 30
0.0
 11
125.9796007239201
 21
152.02094415331081
 31
0.0
  0
LINE
  5
984
  8
0
  6
CONTINUOUS
 62
     1
 10
125.9796007239201
 20
152.02094415331081
 30
0.0
 11
127.9796007239201
 21
152.02094415331081
 31
0.0
  0
LINE
  5
985
  8
0
  6
CONTINUOUS
 62
     1
 10
127.9796007239201
 20
152.02094415331081
 30
0.0
 11
127.9796007239201
 21
147.02094415331081
 31
0.0
  0
ARC
  5
986
  8
0
  6
CONTINUOUS
 62
     1
 10
126.9796007239201
 20
150.52094415331081
 30
0.0
 40
0.5
 50
0.0
 51
180.0
  0
ARC
  5
987
  8
0
  6
CONTINUOUS
 62
     1
 10
126.9796007239201
 20
149.52094415331081
 30
0.0
 40
0.5
 50
180.0
 51
0.0
  0
LINE
  5
988
  8
0
  6
CONTINUOUS
 62
     1
 10
126.4796007239201
 20
150.52094415331081
 30
0.0
 11
126.4796007239201
 21
149.52094415331081
 31
0.0
  0
LINE
  5
989
  8
0
  6
CONTINUOUS
 62
     1
 10
127.4796007239201
 20
149.52094415331081
 30
0.0
 11
127.4796007239201
 21
150.52094415331081
 31
0.0
  0
LINE
  5
98A
  8
0
  6
CONTINUOUS
 62
     1
 10
125.37960072392011
 20
147.02094415331081
 30
0.0
 11
125.37960072392011
 21
147.52094415331081
 31
0.0
  0
LINE
  5
98B
  8
0
  6
CONTINUOUS
 62
     1
 10
125.37960072392011
 20
147.52094415331081
 30
0.0
 11
124.57960072392009
 21
147.52094415331081
 31
0.0
  0
LINE
  5
98C
  8
0
  6
CONTINUOUS
 62
     1
 10
124.57960072392009
 20
147.52094415331081
 30
0.0
 11
124.57960072392009
 21
147.02094415331081
 31
0.0
  0
LINE
  5
98D
  8
0
  6
CONTINUOUS
 62
     1
 10
121.37960072392011
 20
147.02094415331081
 30
0.0
 11
121.37960072392011
 21
147.52094415331081
 31
0.0
  0
LINE
  5
98E
  8
0
  6
CONTINUOUS
 62
     1
 10
121.37960072392011
 20
147.52094415331081
 30
0.0
 11
120.57960072392009
 21
147.52094415331081
 31
0.0
  0
LINE
  5
98F
  8
0
  6
CONTINUOUS
 62
     1
 10
120.57960072392009
 20
147.52094415331081
 30
0.0
 11
120.57960072392009
 21
147.02094415331081
 31
0.0
  0
LINE
  5
990
  8
0
  6
CONTINUOUS
 62
     1
 10
117.37960072392011
 20
147.02094415331081
 30
0.0
 11
117.37960072392011
 21
147.52094415331081
 31
0.0
  0
LINE
  5
991
  8
0
  6
CONTINUOUS
 62
     1
 10
117.37960072392011
 20
147.52094415331081
 30
0.0
 11
116.57960072392009
 21
147.52094415331081
 31
0.0
  0
LINE
  5
992
  8
0
  6
CONTINUOUS
 62
     1
 10
116.57960072392009
 20
147.52094415331081
 30
0.0
 11
116.57960072392009
 21
147.02094415331081
 31
0.0
  0
LINE
  5
993
  8
0
  6
CONTINUOUS
 62
     1
 10
113.37960072392011
 20
147.02094415331081
 30
0.0
 11
113.37960072392011
 21
147.52094415331081
 31
0.0
  0
LINE
  5
994
  8
0
  6
CONTINUOUS
 62
     1
 10
113.37960072392011
 20
147.52094415331081
 30
0.0
 11
112.57960072392009
 21
147.52094415331081
 31
0.0
  0
LINE
  5
995
  8
0
  6
CONTINUOUS
 62
     1
 10
112.57960072392009
 20
147.52094415331081
 30
0.0
 11
112.57960072392009
 21
147.02094415331081
 31
0.0
  0
LINE
  5
996
  8
0
  6
CONTINUOUS
 62
     1
 10
109.37960072392011
 20
147.02094415331081
 30
0.0
 11
109.37960072392011
 21
147.52094415331081
 31
0.0
  0
LINE
  5
997
  8
0
  6
CONTINUOUS
 62
     1
 10
109.37960072392011
 20
147.52094415331081
 30
0.0
 11
108.57960072392009
 21
147.52094415331081
 31
0.0
  0
LINE
  5
998
  8
0
  6
CONTINUOUS
 62
     1
 10
108.57960072392009
 20
147.52094415331081
 30
0.0
 11
108.57960072392009
 21
147.02094415331081
 31
0.0
  0
LINE
  5
999
  8
0
  6
CONTINUOUS
 62
     1
 10
89.979600723920157
 20
147.02094415331081
 30
0.0
 11
89.979600723920157
 21
152.02094415331081
 31
0.0
  0
LINE
  5
99A
  8
0
  6
CONTINUOUS
 62
     1
 10
89.979600723920157
 20
152.02094415331081
 30
0.0
 11
91.979600723920157
 21
152.02094415331081
 31
0.0
  0
LINE
  5
99B
  8
0
  6
CONTINUOUS
 62
     1
 10
91.979600723920157
 20
152.02094415331081
 30
0.0
 11
91.979600723920157
 21
147.02094415331081
 31
0.0
  0
ARC
  5
99C
  8
0
  6
CONTINUOUS
 62
     1
 10
90.979600723920157
 20
150.52094415331081
 30
0.0
 40
0.5
 50
0.0
 51
180.0
  0
ARC
  5
99D
  8
0
  6
CONTINUOUS
 62
     1
 10
90.979600723920157
 20
149.52094415331081
 30
0.0
 40
0.5
 50
180.0
 51
0.0
  0
LINE
  5
99E
  8
0
  6
CONTINUOUS
 62
     1
 10
90.479600723920143
 20
150.52094415331081
 30
0.0
 11
90.479600723920143
 21
149.52094415331081
 31
0.0
  0
LINE
  5
99F
  8
0
  6
CONTINUOUS
 62
     1
 10
91.479600723920143
 20
149.52094415331081
 30
0.0
 11
91.479600723920143
 21
150.52094415331081
 31
0.0
  0
LINE
  5
9A0
  8
0
  6
CONTINUOUS
 62
     1
 10
93.979600723920143
 20
147.02094415331081
 30
0.0
 11
93.979600723920143
 21
152.02094415331081
 31
0.0
  0
LINE
  5
9A1
  8
0
  6
CONTINUOUS
 62
     1
 10
93.979600723920143
 20
152.02094415331081
 30
0.0
 11
95.979600723920157
 21
152.02094415331081
 31
0.0
  0
LINE
  5
9A2
  8
0
  6
CONTINUOUS
 62
     1
 10
95.979600723920157
 20
152.02094415331081
 30
0.0
 11
95.979600723920157
 21
147.02094415331081
 31
0.0
  0
ARC
  5
9A3
  8
0
  6
CONTINUOUS
 62
     1
 10
94.979600723920157
 20
150.52094415331081
 30
0.0
 40
0.5
 50
0.0
 51
180.0
  0
ARC
  5
9A4
  8
0
  6
CONTINUOUS
 62
     1
 10
94.979600723920157
 20
149.52094415331081
 30
0.0
 40
0.5
 50
180.0
 51
0.0
  0
LINE
  5
9A5
  8
0
  6
CONTINUOUS
 62
     1
 10
94.479600723920157
 20
150.52094415331081
 30
0.0
 11
94.479600723920157
 21
149.52094415331081
 31
0.0
  0
LINE
  5
9A6
  8
0
  6
CONTINUOUS
 62
     1
 10
95.479600723920143
 20
149.52094415331081
 30
0.0
 11
95.479600723920143
 21
150.52094415331081
 31
0.0
  0
LINE
  5
9A7
  8
0
  6
CONTINUOUS
 62
     1
 10
97.979600723920143
 20
147.02094415331081
 30
0.0
 11
97.979600723920143
 21
152.02094415331081
 31
0.0
  0
LINE
  5
9A8
  8
0
  6
CONTINUOUS
 62
     1
 10
97.979600723920143
 20
152.02094415331081
 30
0.0
 11
99.979600723920157
 21
152.02094415331081
 31
0.0
  0
LINE
  5
9A9
  8
0
  6
CONTINUOUS
 62
     1
 10
99.979600723920157
 20
152.02094415331081
 30
0.0
 11
99.979600723920157
 21
147.02094415331081
 31
0.0
  0
ARC
  5
9AA
  8
0
  6
CONTINUOUS
 62
     1
 10
98.979600723920171
 20
150.52094415331081
 30
0.0
 40
0.5
 50
0.0
 51
180.0
  0
ARC
  5
9AB
  8
0
  6
CONTINUOUS
 62
     1
 10
98.979600723920171
 20
149.52094415331081
 30
0.0
 40
0.5
 50
180.0
 51
0.0
  0
LINE
  5
9AC
  8
0
  6
CONTINUOUS
 62
     1
 10
98.479600723920157
 20
150.52094415331081
 30
0.0
 11
98.479600723920157
 21
149.52094415331081
 31
0.0
  0
LINE
  5
9AD
  8
0
  6
CONTINUOUS
 62
     1
 10
99.479600723920157
 20
149.52094415331081
 30
0.0
 11
99.479600723920157
 21
150.52094415331081
 31
0.0
  0
LINE
  5
9AE
  8
0
  6
CONTINUOUS
 62
     1
 10
101.9796007239201
 20
147.02094415331081
 30
0.0
 11
101.9796007239201
 21
152.02094415331081
 31
0.0
  0
LINE
  5
9AF
  8
0
  6
CONTINUOUS
 62
     1
 10
101.9796007239201
 20
152.02094415331081
 30
0.0
 11
103.9796007239201
 21
152.02094415331081
 31
0.0
  0
LINE
  5
9B0
  8
0
  6
CONTINUOUS
 62
     1
 10
103.9796007239201
 20
152.02094415331081
 30
0.0
 11
103.9796007239201
 21
147.02094415331081
 31
0.0
  0
ARC
  5
9B1
  8
0
  6
CONTINUOUS
 62
     1
 10
102.9796007239201
 20
150.52094415331081
 30
0.0
 40
0.5
 50
0.0
 51
180.0
  0
ARC
  5
9B2
  8
0
  6
CONTINUOUS
 62
     1
 10
102.9796007239201
 20
149.52094415331081
 30
0.0
 40
0.5
 50
180.0
 51
0.0
  0
LINE
  5
9B3
  8
0
  6
CONTINUOUS
 62
     1
 10
102.4796007239201
 20
150.52094415331081
 30
0.0
 11
102.4796007239201
 21
149.52094415331081
 31
0.0
  0
LINE
  5
9B4
  8
0
  6
CONTINUOUS
 62
     1
 10
103.4796007239201
 20
149.52094415331081
 30
0.0
 11
103.4796007239201
 21
150.52094415331081
 31
0.0
  0
LINE
  5
9B5
  8
0
  6
CONTINUOUS
 62
     1
 10
105.9796007239201
 20
147.02094415331081
 30
0.0
 11
105.9796007239201
 21
152.02094415331081
 31
0.0
  0
LINE
  5
9B6
  8
0
  6
CONTINUOUS
 62
     1
 10
105.9796007239201
 20
152.02094415331081
 30
0.0
 11
107.9796007239201
 21
152.02094415331081
 31
0.0
  0
LINE
  5
9B7
  8
0
  6
CONTINUOUS
 62
     1
 10
107.9796007239201
 20
152.02094415331081
 30
0.0
 11
107.9796007239201
 21
147.02094415331081
 31
0.0
  0
ARC
  5
9B8
  8
0
  6
CONTINUOUS
 62
     1
 10
106.9796007239201
 20
150.52094415331081
 30
0.0
 40
0.5
 50
0.0
 51
180.0
  0
ARC
  5
9B9
  8
0
  6
CONTINUOUS
 62
     1
 10
106.9796007239201
 20
149.52094415331081
 30
0.0
 40
0.5
 50
180.0
 51
0.0
  0
LINE
  5
9BA
  8
0
  6
CONTINUOUS
 62
     1
 10
106.4796007239201
 20
150.52094415331081
 30
0.0
 11
106.4796007239201
 21
149.52094415331081
 31
0.0
  0
LINE
  5
9BB
  8
0
  6
CONTINUOUS
 62
     1
 10
107.4796007239201
 20
149.52094415331081
 30
0.0
 11
107.4796007239201
 21
150.52094415331081
 31
0.0
  0
LINE
  5
9BC
  8
0
  6
CONTINUOUS
 62
     1
 10
105.37960072392011
 20
147.02094415331081
 30
0.0
 11
105.37960072392011
 21
147.52094415331081
 31
0.0
  0
LINE
  5
9BD
  8
0
  6
CONTINUOUS
 62
     1
 10
105.37960072392011
 20
147.52094415331081
 30
0.0
 11
104.57960072392009
 21
147.52094415331081
 31
0.0
  0
LINE
  5
9BE
  8
0
  6
CONTINUOUS
 62
     1
 10
104.57960072392009
 20
147.52094415331081
 30
0.0
 11
104.57960072392009
 21
147.02094415331081
 31
0.0
  0
LINE
  5
9BF
  8
0
  6
CONTINUOUS
 62
     1
 10
101.37960072392011
 20
147.02094415331081
 30
0.0
 11
101.37960072392011
 21
147.52094415331081
 31
0.0
  0
LINE
  5
9C0
  8
0
  6
CONTINUOUS
 62
     1
 10
101.37960072392011
 20
147.52094415331081
 30
0.0
 11
100.57960072392009
 21
147.52094415331081
 31
0.0
  0
LINE
  5
9C1
  8
0
  6
CONTINUOUS
 62
     1
 10
100.57960072392009
 20
147.52094415331081
 30
0.0
 11
100.57960072392009
 21
147.02094415331081
 31
0.0
  0
LINE
  5
9C2
  8
0
  6
CONTINUOUS
 62
     1
 10
97.379600723920163
 20
147.02094415331081
 30
0.0
 11
97.379600723920163
 21
147.52094415331081
 31
0.0
  0
LINE
  5
9C3
  8
0
  6
CONTINUOUS
 62
     1
 10
97.379600723920163
 20
147.52094415331081
 30
0.0
 11
96.579600723920151
 21
147.52094415331081
 31
0.0
  0
LINE
  5
9C4
  8
0
  6
CONTINUOUS
 62
     1
 10
96.579600723920151
 20
147.52094415331081
 30
0.0
 11
96.579600723920151
 21
147.02094415331081
 31
0.0
  0
LINE
  5
9C5
  8
0
  6
CONTINUOUS
 62
     1
 10
93.379600723920163
 20
147.02094415331081
 30
0.0
 11
93.379600723920163
 21
147.52094415331081
 31
0.0
  0
LINE
  5
9C6
  8
0
  6
CONTINUOUS
 62
     1
 10
93.379600723920163
 20
147.52094415331081
 30
0.0
 11
92.579600723920137
 21
147.52094415331081
 31
0.0
  0
LINE
  5
9C7
  8
0
  6
CONTINUOUS
 62
     1
 10
92.579600723920137
 20
147.52094415331081
 30
0.0
 11
92.579600723920137
 21
147.02094415331081
 31
0.0
  0
LINE
  5
9C8
  8
0
  6
CONTINUOUS
 62
     4
 10
130.9796007239201
 20
135.7209441533108
 30
0.0
 11
135.4796007239201
 21
141.7209441533108
 31
0.0
  0
LINE
  5
9C9
  8
0
  6
CONTINUOUS
 62
     4
 10
134.9796007239201
 20
141.2209441533108
 30
0.0
 11
133.4796007239201
 21
140.7209441533108
 31
0.0
  0
LINE
  5
9CA
  8
0
  6
CONTINUOUS
 62
     4
 10
133.4796007239201
 20
141.7209441533108
 30
0.0
 11
134.9796007239201
 21
141.2209441533108
 31
0.0
  0
LINE
  5
9CB
  8
0
  6
CONTINUOUS
 62
     4
 10
85.979600723920157
 20
148.7209441533108
 30
0.0
 11
85.979600723920157
 21
158.2209441533108
 31
0.0
  0
LINE
  5
9CC
  8
0
  6
CONTINUOUS
 62
     4
 10
85.979600723920157
 20
157.7209441533108
 30
0.0
 11
87.479600723920157
 21
157.2209441533108
 31
0.0
  0
LINE
  5
9CD
  8
0
  6
CONTINUOUS
 62
     4
 10
87.479600723920157
 20
158.2209441533108
 30
0.0
 11
85.979600723920157
 21
157.7209441533108
 31
0.0
  0
LINE
  5
9CE
  8
0
  6
CONTINUOUS
 62
     4
 10
85.979600723920157
 20
157.7209441533108
 30
0.0
 11
131.9796007239201
 21
157.7209441533108
 31
0.0
  0
LINE
  5
9CF
  8
0
  6
CONTINUOUS
 62
     4
 10
131.9796007239201
 20
157.7209441533108
 30
0.0
 11
130.4796007239201
 21
158.2209441533108
 31
0.0
  0
LINE
  5
9D0
  8
0
  6
CONTINUOUS
 62
     4
 10
130.4796007239201
 20
157.2209441533108
 30
0.0
 11
131.9796007239201
 21
157.7209441533108
 31
0.0
  0
LINE
  5
9D1
  8
0
  6
CONTINUOUS
 62
     4
 10
131.9796007239201
 20
158.2209441533108
 30
0.0
 11
131.9796007239201
 21
148.7209441533108
 31
0.0
  0
TEXT
  5
9D2
  8
0
  6
CONTINUOUS
 62
     4
 10
111.07960072392009
 20
158.82094415331079
 30
0.0
 40
2.0
  1
46
 41
0.75
  7
KANJI0
  0
ENDSEC
  0
EOF
