  0
SECTION
  2
HEADER
  9
$ACADVER
  1
AC1009
  9
$INSBASE
 10
0.0
 20
0.0
 30
0.0
  9
$EXTMIN
 10
-5.9416163741459845E+073
 20
-5.9416163741459845E+073
 30
0.0
  9
$EXTMAX
 10
8.9745932721546111E+099
 20
1.2692639056332951E+099
 30
0.0
  9
$LIMMIN
 10
0.0
 20
0.0
  9
$LIMMAX
 10
210.0
 20
297.0
  9
$ORTHOMODE
 70
     0
  9
$REGENMODE
 70
     1
  9
$FILLMODE
 70
     1
  9
$QTEXTMODE
 70
     0
  9
$MIRRTEXT
 70
     1
  9
$DRAGMODE
 70
     2
  9
$LTSCALE
 40
1.0
  9
$OSMODE
 70
   167
  9
$ATTMODE
 70
     1
  9
$TEXTSIZE
 40
0.2
  9
$TRACEWID
 40
0.05
  9
$TEXTSTYLE
  7
STANDARD
  9
$CLAYER
  8
0
  9
$CELTYPE
  6
CONTINUOUS
  9
$CECOLOR
 62
   256
  9
$DIMSCALE
 40
1.0
  9
$DIMASZ
 40
0.18
  9
$DIMEXO
 40
0.0625
  9
$DIMDLI
 40
0.38
  9
$DIMRND
 40
0.0
  9
$DIMDLE
 40
0.0
  9
$DIMEXE
 40
0.18
  9
$DIMTP
 40
0.0
  9
$DIMTM
 40
0.0
  9
$DIMTXT
 40
0.18
  9
$DIMCEN
 40
0.09
  9
$DIMTSZ
 40
0.0
  9
$DIMTOL
 70
     0
  9
$DIMLIM
 70
     0
  9
$DIMTIH
 70
     1
  9
$DIMTOH
 70
     1
  9
$DIMSE1
 70
     0
  9
$DIMSE2
 70
     0
  9
$DIMTAD
 70
     0
  9
$DIMZIN
 70
     0
  9
$DIMBLK
  1

  9
$DIMASO
 70
     1
  9
$DIMSHO
 70
     1
  9
$DIMPOST
  1

  9
$DIMAPOST
  1

  9
$DIMALT
 70
     0
  9
$DIMALTD
 70
     2
  9
$DIMALTF
 40
25.399999999999999
  9
$DIMLFAC
 40
1.0
  9
$DIMTOFL
 70
     0
  9
$DIMTVP
 40
0.0
  9
$DIMTIX
 70
     0
  9
$DIMSOXD
 70
     0
  9
$DIMSAH
 70
     0
  9
$DIMBLK1
  1

  9
$DIMBLK2
  1

  9
$DIMSTYLE
  2
STANDARD
  9
$DIMCLRD
 70
     0
  9
$DIMCLRE
 70
     0
  9
$DIMCLRT
 70
     0
  9
$DIMTFAC
 40
1.0
  9
$DIMGAP
 40
0.09
  9
$LUNITS
 70
     2
  9
$LUPREC
 70
     4
  9
$SKETCHINC
 40
0.1
  9
$FILLETRAD
 40
0.0
  9
$AUNITS
 70
     0
  9
$AUPREC
 70
     0
  9
$MENU
  1
.
  9
$ELEVATION
 40
0.0
  9
$PELEVATION
 40
0.0
  9
$THICKNESS
 40
0.0
  9
$LIMCHECK
 70
     0
  9
$BLIPMODE
 70
     0
  9
$CHAMFERA
 40
0.0
  9
$CHAMFERB
 40
0.0
  9
$SKPOLY
 70
     0
  9
$TDCREATE
 40
2452709.6266953708
  9
$TDUPDATE
 40
2456720.5369010302
  9
$TDINDWG
 40
0.0148075
  9
$TDUSRTIMER
 40
0.0148075
  9
$USRTIMER
 70
     1
  9
$ANGBASE
 50
0.0
  9
$ANGDIR
 70
     0
  9
$PDMODE
 70
     0
  9
$PDSIZE
 40
0.0
  9
$PLINEWID
 40
0.0
  9
$COORDS
 70
     2
  9
$SPLFRAME
 70
     0
  9
$SPLINETYPE
 70
     6
  9
$SPLINESEGS
 70
     8
  9
$ATTDIA
 70
     0
  9
$ATTREQ
 70
     1
  9
$HANDLING
 70
     1
  9
$HANDSEED
  5
3A5
  9
$SURFTAB1
 70
     6
  9
$SURFTAB2
 70
     6
  9
$SURFTYPE
 70
     6
  9
$SURFU
 70
     6
  9
$SURFV
 70
     6
  9
$UCSNAME
  2

  9
$UCSORG
 10
0.0
 20
0.0
 30
0.0
  9
$UCSXDIR
 10
1.0
 20
0.0
 30
0.0
  9
$UCSYDIR
 10
0.0
 20
1.0
 30
0.0
  9
$PUCSNAME
  2

  9
$PUCSORG
 10
0.0
 20
0.0
 30
0.0
  9
$PUCSXDIR
 10
1.0
 20
0.0
 30
0.0
  9
$PUCSYDIR
 10
0.0
 20
1.0
 30
0.0
  9
$USERI1
 70
     0
  9
$USERI2
 70
     0
  9
$USERI3
 70
     0
  9
$USERI4
 70
     0
  9
$USERI5
 70
     0
  9
$USERR1
 40
0.0
  9
$USERR2
 40
0.0
  9
$USERR3
 40
0.0
  9
$USERR4
 40
0.0
  9
$USERR5
 40
0.0
  9
$WORLDVIEW
 70
     1
  9
$SHADEDGE
 70
     3
  9
$SHADEDIF
 70
    70
  9
$TILEMODE
 70
     1
  9
$MAXACTVP
 70
    64
  9
$PLIMCHECK
 70
     0
  9
$PEXTMIN
 10
1.0000000000000000E+020
 20
1.0000000000000000E+020
 30
1.0000000000000000E+020
  9
$PEXTMAX
 10
-1.0000000000000000E+020
 20
-1.0000000000000000E+020
 30
-1.0000000000000000E+020
  9
$PLIMMIN
 10
0.0
 20
0.0
  9
$PLIMMAX
 10
12.0
 20
9.0
  9
$UNITMODE
 70
     0
  9
$VISRETAIN
 70
     1
  9
$PLINEGEN
 70
     0
  9
$PSLTSCALE
 70
     1
  0
ENDSEC
  0
SECTION
  2
TABLES
  0
TABLE
  2
VPORT
 70
     1
  0
VPORT
  2
*ACTIVE
 70
     0
 10
0.0
 20
0.0
 11
1.0
 21
1.0
 12
97.801568070410525
 22
216.7725989555766
 13
0.0
 23
0.0
 14
1.0
 24
1.0
 15
0.0
 25
0.0
 16
0.0
 26
0.0
 36
1.0
 17
0.0
 27
0.0
 37
0.0
 40
136.8254062694032
 41
1.4435389988358549
 42
50.0
 43
0.0
 44
0.0
 50
0.0
 51
0.0
 71
     0
 72
   100
 73
     1
 74
     1
 75
     0
 76
     0
 77
     0
 78
     0
  0
ENDTAB
  0
TABLE
  2
LTYPE
 70
     1
  0
LTYPE
  2
CONTINUOUS
 70
     0
  3
Solid line
 72
    65
 73
     0
 40
0.0
  0
ENDTAB
  0
TABLE
  2
LAYER
 70
   128
  0
LAYER
  2
0
 70
     0
 62
     7
  6
CONTINUOUS
  0
LAYER
  2
1
 70
     0
 62
     7
  6
CONTINUOUS
  0
LAYER
  2
2
 70
     0
 62
     7
  6
CONTINUOUS
  0
LAYER
  2
3
 70
     0
 62
     7
  6
CONTINUOUS
  0
LAYER
  2
4
 70
     0
 62
     7
  6
CONTINUOUS
  0
LAYER
  2
5
 70
     0
 62
     7
  6
CONTINUOUS
  0
LAYER
  2
6
 70
     0
 62
     7
  6
CONTINUOUS
  0
LAYER
  2
7
 70
     0
 62
     7
  6
CONTINUOUS
  0
LAYER
  2
8
 70
     0
 62
     7
  6
CONTINUOUS
  0
LAYER
  2
9
 70
     0
 62
     7
  6
CONTINUOUS
  0
LAYER
  2
10
 70
     0
 62
     7
  6
CONTINUOUS
  0
LAYER
  2
11
 70
     0
 62
     7
  6
CONTINUOUS
  0
LAYER
  2
12
 70
     0
 62
     7
  6
CONTINUOUS
  0
LAYER
  2
13
 70
     0
 62
     7
  6
CONTINUOUS
  0
LAYER
  2
14
 70
     0
 62
     7
  6
CONTINUOUS
  0
LAYER
  2
15
 70
     0
 62
     7
  6
CONTINUOUS
  0
LAYER
  2
16
 70
     0
 62
     7
  6
CONTINUOUS
  0
LAYER
  2
17
 70
     0
 62
     7
  6
CONTINUOUS
  0
LAYER
  2
18
 70
     0
 62
     7
  6
CONTINUOUS
  0
LAYER
  2
19
 70
     0
 62
     7
  6
CONTINUOUS
  0
LAYER
  2
20
 70
     0
 62
     7
  6
CONTINUOUS
  0
LAYER
  2
21
 70
     0
 62
     7
  6
CONTINUOUS
  0
LAYER
  2
22
 70
     0
 62
     7
  6
CONTINUOUS
  0
LAYER
  2
23
 70
     0
 62
     7
  6
CONTINUOUS
  0
LAYER
  2
24
 70
     0
 62
     7
  6
CONTINUOUS
  0
LAYER
  2
25
 70
     0
 62
     7
  6
CONTINUOUS
  0
LAYER
  2
26
 70
     0
 62
     7
  6
CONTINUOUS
  0
LAYER
  2
27
 70
     0
 62
     7
  6
CONTINUOUS
  0
LAYER
  2
28
 70
     0
 62
     7
  6
CONTINUOUS
  0
LAYER
  2
29
 70
     0
 62
     7
  6
CONTINUOUS
  0
LAYER
  2
30
 70
     0
 62
     7
  6
CONTINUOUS
  0
LAYER
  2
31
 70
     0
 62
     7
  6
CONTINUOUS
  0
LAYER
  2
32
 70
     0
 62
     7
  6
CONTINUOUS
  0
LAYER
  2
33
 70
     0
 62
     7
  6
CONTINUOUS
  0
LAYER
  2
34
 70
     0
 62
     7
  6
CONTINUOUS
  0
LAYER
  2
35
 70
     0
 62
     7
  6
CONTINUOUS
  0
LAYER
  2
36
 70
     0
 62
     7
  6
CONTINUOUS
  0
LAYER
  2
37
 70
     0
 62
     7
  6
CONTINUOUS
  0
LAYER
  2
38
 70
     0
 62
     7
  6
CONTINUOUS
  0
LAYER
  2
39
 70
     0
 62
     7
  6
CONTINUOUS
  0
LAYER
  2
40
 70
     0
 62
     7
  6
CONTINUOUS
  0
LAYER
  2
41
 70
     0
 62
     7
  6
CONTINUOUS
  0
LAYER
  2
42
 70
     0
 62
     7
  6
CONTINUOUS
  0
LAYER
  2
43
 70
     0
 62
     7
  6
CONTINUOUS
  0
LAYER
  2
44
 70
     0
 62
     7
  6
CONTINUOUS
  0
LAYER
  2
45
 70
     0
 62
     7
  6
CONTINUOUS
  0
LAYER
  2
46
 70
     0
 62
     7
  6
CONTINUOUS
  0
LAYER
  2
47
 70
     0
 62
     7
  6
CONTINUOUS
  0
LAYER
  2
48
 70
     0
 62
     7
  6
CONTINUOUS
  0
LAYER
  2
49
 70
     0
 62
     7
  6
CONTINUOUS
  0
LAYER
  2
50
 70
     0
 62
     7
  6
CONTINUOUS
  0
LAYER
  2
51
 70
     0
 62
     7
  6
CONTINUOUS
  0
LAYER
  2
52
 70
     0
 62
     7
  6
CONTINUOUS
  0
LAYER
  2
53
 70
     0
 62
     7
  6
CONTINUOUS
  0
LAYER
  2
54
 70
     0
 62
     7
  6
CONTINUOUS
  0
LAYER
  2
55
 70
     0
 62
     7
  6
CONTINUOUS
  0
LAYER
  2
56
 70
     0
 62
     7
  6
CONTINUOUS
  0
LAYER
  2
57
 70
     0
 62
     7
  6
CONTINUOUS
  0
LAYER
  2
58
 70
     0
 62
     7
  6
CONTINUOUS
  0
LAYER
  2
59
 70
     0
 62
     7
  6
CONTINUOUS
  0
LAYER
  2
60
 70
     0
 62
     7
  6
CONTINUOUS
  0
LAYER
  2
61
 70
     0
 62
     7
  6
CONTINUOUS
  0
LAYER
  2
62
 70
     0
 62
     7
  6
CONTINUOUS
  0
LAYER
  2
63
 70
     0
 62
     7
  6
CONTINUOUS
  0
LAYER
  2
64
 70
     0
 62
     7
  6
CONTINUOUS
  0
LAYER
  2
65
 70
     0
 62
     7
  6
CONTINUOUS
  0
LAYER
  2
66
 70
     0
 62
     7
  6
CONTINUOUS
  0
LAYER
  2
67
 70
     0
 62
     7
  6
CONTINUOUS
  0
LAYER
  2
68
 70
     0
 62
     7
  6
CONTINUOUS
  0
LAYER
  2
69
 70
     0
 62
     7
  6
CONTINUOUS
  0
LAYER
  2
70
 70
     0
 62
     7
  6
CONTINUOUS
  0
LAYER
  2
71
 70
     0
 62
     7
  6
CONTINUOUS
  0
LAYER
  2
72
 70
     0
 62
     7
  6
CONTINUOUS
  0
LAYER
  2
73
 70
     0
 62
     7
  6
CONTINUOUS
  0
LAYER
  2
74
 70
     0
 62
     7
  6
CONTINUOUS
  0
LAYER
  2
75
 70
     0
 62
     7
  6
CONTINUOUS
  0
LAYER
  2
76
 70
     0
 62
     7
  6
CONTINUOUS
  0
LAYER
  2
77
 70
     0
 62
     7
  6
CONTINUOUS
  0
LAYER
  2
78
 70
     0
 62
     7
  6
CONTINUOUS
  0
LAYER
  2
79
 70
     0
 62
     7
  6
CONTINUOUS
  0
LAYER
  2
80
 70
     0
 62
     7
  6
CONTINUOUS
  0
LAYER
  2
81
 70
     0
 62
     7
  6
CONTINUOUS
  0
LAYER
  2
82
 70
     0
 62
     7
  6
CONTINUOUS
  0
LAYER
  2
83
 70
     0
 62
     7
  6
CONTINUOUS
  0
LAYER
  2
84
 70
     0
 62
     7
  6
CONTINUOUS
  0
LAYER
  2
85
 70
     0
 62
     7
  6
CONTINUOUS
  0
LAYER
  2
86
 70
     0
 62
     7
  6
CONTINUOUS
  0
LAYER
  2
87
 70
     0
 62
     7
  6
CONTINUOUS
  0
LAYER
  2
88
 70
     0
 62
     7
  6
CONTINUOUS
  0
LAYER
  2
89
 70
     0
 62
     7
  6
CONTINUOUS
  0
LAYER
  2
90
 70
     0
 62
     7
  6
CONTINUOUS
  0
LAYER
  2
91
 70
     0
 62
     7
  6
CONTINUOUS
  0
LAYER
  2
92
 70
     0
 62
     7
  6
CONTINUOUS
  0
LAYER
  2
93
 70
     0
 62
     7
  6
CONTINUOUS
  0
LAYER
  2
94
 70
     0
 62
     7
  6
CONTINUOUS
  0
LAYER
  2
95
 70
     0
 62
     7
  6
CONTINUOUS
  0
LAYER
  2
96
 70
     0
 62
     7
  6
CONTINUOUS
  0
LAYER
  2
97
 70
     0
 62
     7
  6
CONTINUOUS
  0
LAYER
  2
98
 70
     0
 62
     7
  6
CONTINUOUS
  0
LAYER
  2
99
 70
     0
 62
     7
  6
CONTINUOUS
  0
LAYER
  2
100
 70
     0
 62
     7
  6
CONTINUOUS
  0
LAYER
  2
101
 70
     0
 62
     7
  6
CONTINUOUS
  0
LAYER
  2
102
 70
     0
 62
     7
  6
CONTINUOUS
  0
LAYER
  2
103
 70
     0
 62
     7
  6
CONTINUOUS
  0
LAYER
  2
104
 70
     0
 62
     7
  6
CONTINUOUS
  0
LAYER
  2
105
 70
     0
 62
     7
  6
CONTINUOUS
  0
LAYER
  2
106
 70
     0
 62
     7
  6
CONTINUOUS
  0
LAYER
  2
107
 70
     0
 62
     7
  6
CONTINUOUS
  0
LAYER
  2
108
 70
     0
 62
     7
  6
CONTINUOUS
  0
LAYER
  2
109
 70
     0
 62
     7
  6
CONTINUOUS
  0
LAYER
  2
110
 70
     0
 62
     7
  6
CONTINUOUS
  0
LAYER
  2
111
 70
     0
 62
     7
  6
CONTINUOUS
  0
LAYER
  2
112
 70
     0
 62
     7
  6
CONTINUOUS
  0
LAYER
  2
113
 70
     0
 62
     7
  6
CONTINUOUS
  0
LAYER
  2
114
 70
     0
 62
     7
  6
CONTINUOUS
  0
LAYER
  2
115
 70
     0
 62
     7
  6
CONTINUOUS
  0
LAYER
  2
116
 70
     0
 62
     7
  6
CONTINUOUS
  0
LAYER
  2
117
 70
     0
 62
     7
  6
CONTINUOUS
  0
LAYER
  2
118
 70
     0
 62
     7
  6
CONTINUOUS
  0
LAYER
  2
119
 70
     0
 62
     7
  6
CONTINUOUS
  0
LAYER
  2
120
 70
     0
 62
     7
  6
CONTINUOUS
  0
LAYER
  2
121
 70
     0
 62
     7
  6
CONTINUOUS
  0
LAYER
  2
122
 70
     0
 62
     7
  6
CONTINUOUS
  0
LAYER
  2
123
 70
     0
 62
     7
  6
CONTINUOUS
  0
LAYER
  2
124
 70
     0
 62
     7
  6
CONTINUOUS
  0
LAYER
  2
125
 70
     0
 62
     7
  6
CONTINUOUS
  0
LAYER
  2
126
 70
     0
 62
     7
  6
CONTINUOUS
  0
LAYER
  2
127
 70
     0
 62
     7
  6
CONTINUOUS
  0
ENDTAB
  0
TABLE
  2
STYLE
 70
    25
  0
STYLE
  2
STANDARD
 70
     0
 40
0.0
 41
1.0
 50
0.0
 71
     0
 42
0.2
  3
txt
  4

  0
STYLE
  2
KANJI0
 70
     0
 40
2.5
 41
0.75
 50
0.0
 71
     0
 42
2.5
  3
txt
  4
bigfont
  0
STYLE
  2
KANJI1
 70
     0
 40
2.0
 41
0.7
 50
0.0
 71
     0
 42
2.0
  3
txt
  4
bigfont
  0
STYLE
  2
KANJI2
 70
     0
 40
3.0
 41
0.75
 50
0.0
 71
     0
 42
3.0
  3
txt
  4
bigfont
  0
STYLE
  2
KANJI3
 70
     0
 40
3.0
 41
0.333333333
 50
0.0
 71
     0
 42
3.0
  3
txt
  4
bigfont
  0
STYLE
  2
KANJI4
 70
     0
 40
2.5
 41
0.7
 50
0.0
 71
     0
 42
2.5
  3
txt
  4
bigfont
  0
STYLE
  2
KANJI5
 70
     0
 40
2.0
 41
0.75
 50
0.0
 71
     0
 42
2.0
  3
txt
  4
bigfont
  0
STYLE
  2
KANJI6
 70
     0
 40
1.5
 41
0.7
 50
0.0
 71
     0
 42
1.5
  3
txt
  4
bigfont
  0
STYLE
  2
KANJI7
 70
     0
 40
2.399999999999999
 41
0.9
 50
10.0
 71
     0
 42
2.399999999999999
  3
txt
  4
bigfont
  0
STYLE
  2
KANJI8
 70
     0
 40
6.0
 41
0.75
 50
0.0
 71
     0
 42
6.0
  3
txt
  4
bigfont
  0
STYLE
  2
KANJI9
 70
     0
 40
3.6000000000000001
 41
0.7
 50
0.0
 71
     0
 42
3.6000000000000001
  3
txt
  4
bigfont
  0
STYLE
  2
KANJI10
 70
     0
 40
5.0
 41
0.8
 50
10.0
 71
     0
 42
5.0
  3
txt
  4
bigfont
  0
STYLE
  2
KANJI11
 70
     0
 40
3.0
 41
1.0
 50
0.0
 71
     0
 42
3.0
  3
txt
  4
bigfont
  0
STYLE
  2
KANJI12
 70
     0
 40
2.1600000000000001
 41
1.0
 50
0.0
 71
     0
 42
2.1600000000000001
  3
txt
  4
bigfont
  0
STYLE
  2
KANJI13
 70
     0
 40
3.0
 41
0.833333333
 50
0.0
 71
     0
 42
3.0
  3
txt
  4
bigfont
  0
STYLE
  2
KANJI14
 70
     0
 40
2.0
 41
0.99
 50
0.0
 71
     0
 42
2.0
  3
txt
  4
bigfont
  0
STYLE
  2
KANJI15
 70
     0
 40
4.0
 41
1.0
 50
10.0
 71
     0
 42
4.0
  3
txt
  4
bigfont
  0
STYLE
  2
KANJI16
 70
     0
 40
5.0
 41
0.45
 50
0.0
 71
     0
 42
5.0
  3
txt
  4
bigfont
  0
STYLE
  2
KANJI17
 70
     0
 40
2.0
 41
0.864
 50
0.0
 71
     0
 42
2.0
  3
txt
  4
bigfont
  0
STYLE
  2
KANJI18
 70
     0
 40
2.2000000000000002
 41
0.9818181819999999
 50
0.0
 71
     0
 42
2.2000000000000002
  3
txt
  4
bigfont
  0
STYLE
  2
KANJI19
 70
     0
 40
3.1185
 41
0.833333333
 50
0.0
 71
     0
 42
3.1185
  3
txt
  4
bigfont
  0
STYLE
  2
KANJI20
 70
     0
 40
1.728
 41
1.0
 50
0.0
 71
     0
 42
1.728
  3
txt
  4
bigfont
  0
STYLE
  2
KANJI21
 70
     0
 40
2.9700000000000002
 41
0.5555555560000001
 50
0.0
 71
     0
 42
2.9700000000000002
  3
txt
  4
bigfont
  0
STYLE
  2
KANJI22
 70
     0
 40
3.2400000000000002
 41
0.833333333
 50
0.0
 71
     0
 42
3.2400000000000002
  3
txt
  4
bigfont
  0
STYLE
  2
KANJI23
 70
     0
 40
4.0
 41
1.0
 50
10.0
 71
     0
 42
4.0
  3
txt
  4
bigfont
  0
ENDTAB
  0
TABLE
  2
VIEW
 70
     0
  0
ENDTAB
  0
TABLE
  2
UCS
 70
     0
  0
ENDTAB
  0
TABLE
  2
APPID
 70
     2
  0
APPID
  2
ACAD
 70
     0
  0
APPID
  2
ACAD_MLEADERVER
 70
     0
  0
ENDTAB
  0
TABLE
  2
DIMSTYLE
 70
     1
  0
DIMSTYLE
  2
STANDARD
 70
     0
  3

  4

  5

  6

  7

 40
1.0
 41
0.18
 42
0.0625
 43
0.38
 44
0.18
 45
0.0
 46
0.0
 47
0.0
 48
0.0
140
0.18
141
0.09
142
0.0
143
25.399999999999999
144
1.0
145
0.0
146
1.0
147
0.09
 71
     0
 72
     0
 73
     1
 74
     1
 75
     0
 76
     0
 77
     0
 78
     0
170
     0
171
     2
172
     0
173
     0
174
     0
175
     0
176
     0
177
     0
178
     0
  0
ENDTAB
  0
ENDSEC
  0
SECTION
  2
BLOCKS
  0
BLOCK
  8
0
  2
$MODEL_SPACE
 70
     0
 10
0.0
 20
0.0
 30
0.0
  3
$MODEL_SPACE
  1

  0
ENDBLK
  5
20
  8
0
  0
BLOCK
 67
     1
  8
0
  2
$PAPER_SPACE
 70
     0
 10
0.0
 20
0.0
 30
0.0
  3
$PAPER_SPACE
  1

  0
ENDBLK
  5
1C
 67
     1
  8
0
  0
ENDSEC
  0
SECTION
  2
ENTITIES
  0
POLYLINE
  5
BC
  8
0
 62
     1
 66
     1
 10
0.0
 20
0.0
 30
0.0
  0
VERTEX
  5
358
  8
0
 62
     1
 10
1.2692639056332951E+099
 20
-5.4795364989713871E+072
 30
0.0
  0
VERTEX
  5
359
  8
0
 62
     1
 10
1.2692639056332951E+099
 20
-5.4795364989713871E+072
 30
0.0
  0
VERTEX
  5
35A
  8
0
 62
     1
 10
1.2692639056332951E+099
 20
-5.4795364989713871E+072
 30
0.0
  0
SEQEND
  5
35B
  8
0
 62
     1
  0
LINE
  5
C1
  8
0
  6
CONTINUOUS
 62
     1
 10
-5.9416163741459845E+073
 20
0.0
 30
0.0
 11
-5.9416163741459845E+073
 21
0.647047613
 31
0.0
  0
LINE
  5
C2
  8
0
  6
CONTINUOUS
 62
     1
 10
-5.9416163741459845E+073
 20
0.0
 30
0.0
 11
-5.9416163741459845E+073
 21
-0.647047613
 31
0.0
  0
POINT
  5
C3
  8
0
  6
CONTINUOUS
 62
     1
 10
1.2692639056332951E+099
 20
-5.4795364989713871E+072
 30
0.0
  0
POINT
  5
C4
  8
0
  6
CONTINUOUS
 62
     1
 10
1.2692639056332951E+099
 20
-5.4795364989713871E+072
 30
0.0
  0
LINE
  5
C5
  8
0
  6
CONTINUOUS
 62
     1
 10
-5.9416163741459845E+073
 20
0.0
 30
0.0
 11
-5.9416163741459845E+073
 21
0.647047613
 31
0.0
  0
LINE
  5
C6
  8
0
  6
CONTINUOUS
 62
     1
 10
-5.9416163741459845E+073
 20
0.0
 30
0.0
 11
-5.9416163741459845E+073
 21
-0.647047613
 31
0.0
  0
POLYLINE
  5
C7
  8
0
 62
     1
 66
     1
 10
0.0
 20
0.0
 30
0.0
  0
VERTEX
  5
35C
  8
0
 62
     1
 10
6.2829853028270678E+099
 20
1.2692639056332951E+099
 30
0.0
  0
VERTEX
  5
35D
  8
0
 62
     1
 10
6.2829853028270678E+099
 20
1.2692639056332951E+099
 30
0.0
  0
VERTEX
  5
35E
  8
0
 62
     1
 10
6.2829853028270678E+099
 20
1.2692639056332951E+099
 30
0.0
  0
SEQEND
  5
35F
  8
0
 62
     1
  0
POINT
  5
CC
  8
0
  6
CONTINUOUS
 62
     1
 10
-2.9411604779834719E+062
 20
-5.9416163741459845E+073
 30
0.0
  0
POINT
  5
CD
  8
0
  6
CONTINUOUS
 62
     1
 10
-2.9411604779834719E+062
 20
-5.9416163741459845E+073
 30
0.0
  0
POINT
  5
CE
  8
0
  6
CONTINUOUS
 62
     1
 10
6.2829853028270678E+099
 20
1.2692639056332951E+099
 30
0.0
  0
POINT
  5
CF
  8
0
  6
CONTINUOUS
 62
     1
 10
6.2829853028270678E+099
 20
1.2692639056332951E+099
 30
0.0
  0
POINT
  5
D0
  8
0
  6
CONTINUOUS
 62
     1
 10
-2.9411604779834719E+062
 20
-5.9416163741459845E+073
 30
0.0
  0
POINT
  5
D1
  8
0
  6
CONTINUOUS
 62
     1
 10
-2.9411604779834719E+062
 20
-5.9416163741459845E+073
 30
0.0
  0
POINT
  5
D2
  8
0
  6
CONTINUOUS
 62
     1
 10
6.2829853028270678E+099
 20
1.2692639056332951E+099
 30
0.0
  0
POINT
  5
D3
  8
0
  6
CONTINUOUS
 62
     1
 10
6.2829853028270678E+099
 20
1.2692639056332951E+099
 30
0.0
  0
POINT
  5
D4
  8
0
  6
CONTINUOUS
 62
     1
 10
-2.9411604779834719E+062
 20
-5.9416163741459845E+073
 30
0.0
  0
POINT
  5
D5
  8
0
  6
CONTINUOUS
 62
     1
 10
-2.9411604779834719E+062
 20
-5.9416163741459845E+073
 30
0.0
  0
POINT
  5
D6
  8
0
  6
CONTINUOUS
 62
     1
 10
6.2829853028270678E+099
 20
1.2692639056332951E+099
 30
0.0
  0
POINT
  5
D7
  8
0
  6
CONTINUOUS
 62
     1
 10
6.2829853028270678E+099
 20
1.2692639056332951E+099
 30
0.0
  0
POINT
  5
D8
  8
0
  6
CONTINUOUS
 62
     1
 10
-2.9411604779834719E+062
 20
-5.9416163741459845E+073
 30
0.0
  0
POINT
  5
D9
  8
0
  6
CONTINUOUS
 62
     1
 10
-2.9411604779834719E+062
 20
-5.9416163741459845E+073
 30
0.0
  0
POINT
  5
DA
  8
0
  6
CONTINUOUS
 62
     1
 10
6.2829853028270678E+099
 20
1.2692639056332951E+099
 30
0.0
  0
POINT
  5
DB
  8
0
  6
CONTINUOUS
 62
     1
 10
6.2829853028270678E+099
 20
1.2692639056332951E+099
 30
0.0
  0
POINT
  5
DC
  8
0
  6
CONTINUOUS
 62
     1
 10
-2.9411604779834719E+062
 20
-5.9416163741459845E+073
 30
0.0
  0
POINT
  5
DD
  8
0
  6
CONTINUOUS
 62
     1
 10
-2.9411604779834719E+062
 20
-5.9416163741459845E+073
 30
0.0
  0
POINT
  5
DE
  8
0
  6
CONTINUOUS
 62
     1
 10
6.2829853028270678E+099
 20
1.2692639056332951E+099
 30
0.0
  0
POINT
  5
DF
  8
0
  6
CONTINUOUS
 62
     1
 10
6.2829853028270678E+099
 20
1.2692639056332951E+099
 30
0.0
  0
POINT
  5
E0
  8
0
  6
CONTINUOUS
 62
     1
 10
-2.9411604779834719E+062
 20
-5.9416163741459845E+073
 30
0.0
  0
POINT
  5
E1
  8
0
  6
CONTINUOUS
 62
     1
 10
-2.9411604779834719E+062
 20
-5.9416163741459845E+073
 30
0.0
  0
POLYLINE
  5
E2
  8
0
 62
     1
 66
     1
 10
0.0
 20
0.0
 30
0.0
  0
VERTEX
  5
360
  8
0
 62
     1
 10
8.9745932721546111E+099
 20
-3.8744197467474441E+072
 30
0.0
  0
VERTEX
  5
361
  8
0
 62
     1
 10
8.9745932721546111E+099
 20
-3.8744197467474441E+072
 30
0.0
  0
VERTEX
  5
362
  8
0
 62
     1
 10
8.9745932721546111E+099
 20
-3.8744197467474441E+072
 30
0.0
  0
SEQEND
  5
363
  8
0
 62
     1
  0
LINE
  5
E7
  8
0
  6
CONTINUOUS
 62
     1
 10
-4.2011428908102930E+073
 20
0.0
 30
0.0
 11
-4.2011428908102930E+073
 21
0.457508413
 31
0.0
  0
LINE
  5
E8
  8
0
  6
CONTINUOUS
 62
     1
 10
-4.2011428908102930E+073
 20
0.0
 30
0.0
 11
-4.2011428908102930E+073
 21
-0.457508413
 31
0.0
  0
POINT
  5
E9
  8
0
  6
CONTINUOUS
 62
     1
 10
8.9745932721546111E+099
 20
-3.8744197467474441E+072
 30
0.0
  0
POINT
  5
EA
  8
0
  6
CONTINUOUS
 62
     1
 10
8.9745932721546111E+099
 20
-3.8744197467474441E+072
 30
0.0
  0
LINE
  5
EB
  8
0
  6
CONTINUOUS
 62
     1
 10
-4.2011428908102930E+073
 20
0.0
 30
0.0
 11
-4.2011428908102930E+073
 21
0.457508413
 31
0.0
  0
LINE
  5
EC
  8
0
  6
CONTINUOUS
 62
     1
 10
-4.2011428908102930E+073
 20
0.0
 30
0.0
 11
-4.2011428908102930E+073
 21
-0.457508413
 31
0.0
  0
ARC
  5
14F
  8
0
  6
CONTINUOUS
 62
     3
 10
42.0
 20
182.24999999999989
 30
0.0
 40
1.5
 50
180.0
 51
270.0
  0
ARC
  5
155
  8
0
  6
CONTINUOUS
 62
     3
 10
41.5
 20
193.0
 30
0.0
 40
1.0
 50
180.0
 51
270.0
  0
ARC
  5
156
  8
0
  6
CONTINUOUS
 62
     3
 10
84.500000000000014
 20
249.0
 30
0.0
 40
1.0
 50
0.0
 51
90.0
  0
ARC
  5
157
  8
0
  6
CONTINUOUS
 62
     3
 10
41.5
 20
249.0
 30
0.0
 40
1.0
 50
90.0
 51
180.0
  0
LINE
  5
158
  8
0
  6
CONTINUOUS
 62
     3
 10
40.499999999999993
 20
249.0
 30
0.0
 11
40.499999999999993
 21
193.0
 31
0.0
  0
ARC
  5
159
  8
0
  6
CONTINUOUS
 62
     3
 10
42.0
 20
193.5
 30
0.0
 40
1.0
 50
180.0
 51
270.0
  0
LINE
  5
15A
  8
0
  6
CONTINUOUS
 62
     3
 10
42.0
 20
192.5
 30
0.0
 11
84.0
 21
192.5
 31
0.0
  0
ARC
  5
15B
  8
0
  6
CONTINUOUS
 62
     3
 10
84.0
 20
193.5
 30
0.0
 40
1.0
 50
270.0
 51
0.0
  0
LINE
  5
15C
  8
0
  6
CONTINUOUS
 62
     3
 10
85.0
 20
193.5
 30
0.0
 11
85.0
 21
248.4999999999998
 31
0.0
  0
ARC
  5
15D
  8
0
  6
CONTINUOUS
 62
     3
 10
84.0
 20
248.4999999999998
 30
0.0
 40
1.0
 50
0.0
 51
90.0
  0
LINE
  5
15E
  8
0
  6
CONTINUOUS
 62
     3
 10
84.0
 20
249.5
 30
0.0
 11
42.0
 21
249.5
 31
0.0
  0
ARC
  5
15F
  8
0
  6
CONTINUOUS
 62
     3
 10
42.0
 20
248.4999999999998
 30
0.0
 40
1.0
 50
90.0
 51
180.0
  0
LINE
  5
160
  8
0
  6
CONTINUOUS
 62
     3
 10
41.0
 20
248.4999999999998
 30
0.0
 11
41.0
 21
193.5
 31
0.0
  0
CIRCLE
  5
164
  8
0
  6
CONTINUOUS
 62
     3
 10
57.5
 20
186.59999999999991
 30
0.0
 40
3.0
  0
LINE
  5
165
  8
0
  6
CONTINUOUS
 62
     3
 10
57.5
 20
188.59999999999991
 30
0.0
 11
57.0
 21
188.59999999999991
 31
0.0
  0
LINE
  5
166
  8
0
  6
CONTINUOUS
 62
     3
 10
57.0
 20
188.59999999999991
 30
0.0
 11
57.0
 21
187.09999999999999
 31
0.0
  0
LINE
  5
167
  8
0
  6
CONTINUOUS
 62
     3
 10
57.0
 20
187.09999999999999
 30
0.0
 11
55.5
 21
187.09999999999999
 31
0.0
  0
LINE
  5
168
  8
0
  6
CONTINUOUS
 62
     3
 10
55.5
 20
187.09999999999999
 30
0.0
 11
55.5
 21
186.09999999999991
 31
0.0
  0
LINE
  5
169
  8
0
  6
CONTINUOUS
 62
     3
 10
55.5
 20
186.09999999999991
 30
0.0
 11
57.0
 21
186.09999999999991
 31
0.0
  0
LINE
  5
16A
  8
0
  6
CONTINUOUS
 62
     3
 10
57.0
 20
186.09999999999991
 30
0.0
 11
57.0
 21
184.59999999999999
 31
0.0
  0
LINE
  5
16B
  8
0
  6
CONTINUOUS
 62
     3
 10
57.0
 20
184.59999999999999
 30
0.0
 11
58.0
 21
184.59999999999999
 31
0.0
  0
LINE
  5
16C
  8
0
  6
CONTINUOUS
 62
     3
 10
58.0
 20
184.59999999999999
 30
0.0
 11
58.0
 21
186.09999999999991
 31
0.0
  0
LINE
  5
16D
  8
0
  6
CONTINUOUS
 62
     3
 10
58.0
 20
186.09999999999991
 30
0.0
 11
59.5
 21
186.09999999999991
 31
0.0
  0
LINE
  5
16E
  8
0
  6
CONTINUOUS
 62
     3
 10
59.5
 20
186.09999999999991
 30
0.0
 11
59.5
 21
187.09999999999999
 31
0.0
  0
LINE
  5
16F
  8
0
  6
CONTINUOUS
 62
     3
 10
59.5
 20
187.09999999999999
 30
0.0
 11
58.0
 21
187.09999999999999
 31
0.0
  0
LINE
  5
170
  8
0
  6
CONTINUOUS
 62
     3
 10
58.0
 20
187.09999999999999
 30
0.0
 11
58.0
 21
188.59999999999991
 31
0.0
  0
LINE
  5
171
  8
0
  6
CONTINUOUS
 62
     3
 10
58.0
 20
188.59999999999991
 30
0.0
 11
57.5
 21
188.59999999999991
 31
0.0
  0
LINE
  5
172
  8
0
  6
CONTINUOUS
 62
     3
 10
53.100000000000001
 20
180.75
 30
0.0
 11
53.100000000000001
 21
191.0
 31
0.0
  0
ARC
  5
173
  8
0
  6
CONTINUOUS
 62
     3
 10
54.100000000000001
 20
191.0
 30
0.0
 40
1.0
 50
90.0
 51
180.0
  0
LINE
  5
174
  8
0
  6
CONTINUOUS
 62
     3
 10
54.100000000000001
 20
192.0
 30
0.0
 11
60.899999999999991
 21
192.0
 31
0.0
  0
LINE
  5
175
  8
0
  6
CONTINUOUS
 62
     3
 10
61.899999999999999
 20
180.75
 30
0.0
 11
61.899999999999999
 21
191.0
 31
0.0
  0
ARC
  5
176
  8
0
  6
CONTINUOUS
 62
     3
 10
60.899999999999991
 20
191.0
 30
0.0
 40
1.0
 50
0.0
 51
90.0
  0
LINE
  5
177
  8
0
  6
CONTINUOUS
 62
     3
 10
63.600000000000001
 20
180.75
 30
0.0
 11
63.600000000000001
 21
191.0
 31
0.0
  0
ARC
  5
178
  8
0
  6
CONTINUOUS
 62
     3
 10
64.599999999999994
 20
191.0
 30
0.0
 40
1.0
 50
90.0
 51
180.0
  0
LINE
  5
179
  8
0
  6
CONTINUOUS
 62
     3
 10
64.599999999999994
 20
192.0
 30
0.0
 11
71.400000000000006
 21
192.0
 31
0.0
  0
LINE
  5
17A
  8
0
  6
CONTINUOUS
 62
     3
 10
72.400000000000006
 20
180.75
 30
0.0
 11
72.400000000000006
 21
191.0
 31
0.0
  0
ARC
  5
17B
  8
0
  6
CONTINUOUS
 62
     3
 10
71.400000000000006
 20
191.0
 30
0.0
 40
1.0
 50
0.0
 51
90.0
  0
CIRCLE
  5
17C
  8
0
  6
CONTINUOUS
 62
     3
 10
47.0
 20
186.59999999999991
 30
0.0
 40
3.0
  0
LINE
  5
17D
  8
0
  6
CONTINUOUS
 62
     3
 10
47.0
 20
188.59999999999991
 30
0.0
 11
46.5
 21
188.59999999999991
 31
0.0
  0
LINE
  5
17E
  8
0
  6
CONTINUOUS
 62
     3
 10
46.5
 20
188.59999999999991
 30
0.0
 11
46.5
 21
187.09999999999999
 31
0.0
  0
LINE
  5
17F
  8
0
  6
CONTINUOUS
 62
     3
 10
46.5
 20
187.09999999999999
 30
0.0
 11
45.0
 21
187.09999999999999
 31
0.0
  0
LINE
  5
180
  8
0
  6
CONTINUOUS
 62
     3
 10
45.0
 20
187.09999999999999
 30
0.0
 11
45.0
 21
186.09999999999991
 31
0.0
  0
LINE
  5
181
  8
0
  6
CONTINUOUS
 62
     3
 10
45.0
 20
186.09999999999991
 30
0.0
 11
46.5
 21
186.09999999999991
 31
0.0
  0
LINE
  5
182
  8
0
  6
CONTINUOUS
 62
     3
 10
46.5
 20
186.09999999999991
 30
0.0
 11
46.5
 21
184.59999999999999
 31
0.0
  0
LINE
  5
183
  8
0
  6
CONTINUOUS
 62
     3
 10
46.5
 20
184.59999999999999
 30
0.0
 11
47.5
 21
184.59999999999999
 31
0.0
  0
LINE
  5
184
  8
0
  6
CONTINUOUS
 62
     3
 10
47.5
 20
184.59999999999999
 30
0.0
 11
47.5
 21
186.09999999999991
 31
0.0
  0
LINE
  5
185
  8
0
  6
CONTINUOUS
 62
     3
 10
47.5
 20
186.09999999999991
 30
0.0
 11
49.0
 21
186.09999999999991
 31
0.0
  0
LINE
  5
186
  8
0
  6
CONTINUOUS
 62
     3
 10
49.0
 20
186.09999999999991
 30
0.0
 11
49.0
 21
187.09999999999999
 31
0.0
  0
LINE
  5
187
  8
0
  6
CONTINUOUS
 62
     3
 10
49.0
 20
187.09999999999999
 30
0.0
 11
47.5
 21
187.09999999999999
 31
0.0
  0
LINE
  5
188
  8
0
  6
CONTINUOUS
 62
     3
 10
47.5
 20
187.09999999999999
 30
0.0
 11
47.5
 21
188.59999999999991
 31
0.0
  0
LINE
  5
189
  8
0
  6
CONTINUOUS
 62
     3
 10
47.5
 20
188.59999999999991
 30
0.0
 11
47.0
 21
188.59999999999991
 31
0.0
  0
LINE
  5
18A
  8
0
  6
CONTINUOUS
 62
     3
 10
42.600000000000001
 20
180.75
 30
0.0
 11
42.600000000000001
 21
191.0
 31
0.0
  0
ARC
  5
18B
  8
0
  6
CONTINUOUS
 62
     3
 10
43.600000000000001
 20
191.0
 30
0.0
 40
1.0
 50
90.0
 51
180.0
  0
LINE
  5
18C
  8
0
  6
CONTINUOUS
 62
     3
 10
43.600000000000001
 20
192.0
 30
0.0
 11
50.399999999999999
 21
192.0
 31
0.0
  0
LINE
  5
18D
  8
0
  6
CONTINUOUS
 62
     3
 10
51.399999999999999
 20
180.75
 30
0.0
 11
51.399999999999999
 21
191.0
 31
0.0
  0
ARC
  5
18E
  8
0
  6
CONTINUOUS
 62
     3
 10
50.399999999999999
 20
191.0
 30
0.0
 40
1.0
 50
0.0
 51
90.0
  0
LINE
  5
18F
  8
0
  6
CONTINUOUS
 62
     3
 10
42.0
 20
180.75
 30
0.0
 11
73.0
 21
180.75
 31
0.0
  0
LINE
  5
190
  8
0
  6
CONTINUOUS
 62
     3
 10
74.5
 20
182.24999999999989
 30
0.0
 11
74.5
 21
192.0
 31
0.0
  0
ARC
  5
191
  8
0
  6
CONTINUOUS
 62
     3
 10
73.0
 20
182.24999999999989
 30
0.0
 40
1.5
 50
270.0
 51
0.0
  0
LINE
  5
192
  8
0
  6
CONTINUOUS
 62
     3
 10
41.5
 20
192.0
 30
0.0
 11
50.399999999999999
 21
192.0
 31
0.0
  0
LINE
  5
193
  8
0
  6
CONTINUOUS
 62
     3
 10
64.599999999999994
 20
192.0
 30
0.0
 11
84.500000000000014
 21
192.0
 31
0.0
  0
ARC
  5
194
  8
0
  6
CONTINUOUS
 62
     3
 10
84.500000000000014
 20
193.0
 30
0.0
 40
1.0
 50
270.0
 51
0.0
  0
LINE
  5
195
  8
0
  6
CONTINUOUS
 62
     3
 10
40.499999999999993
 20
245.40000000000001
 30
0.0
 11
40.499999999999993
 21
182.24999999999989
 31
0.0
  0
LINE
  5
196
  8
0
  6
CONTINUOUS
 62
     3
 10
85.5
 20
193.0
 30
0.0
 11
85.5
 21
245.0
 31
0.0
  0
ARC
  5
197
  8
0
  6
CONTINUOUS
 62
     3
 10
84.500000000000014
 20
249.0
 30
0.0
 40
1.0
 50
0.0
 51
90.0
  0
ARC
  5
198
  8
0
  6
CONTINUOUS
 62
     3
 10
84.0
 20
248.4999999999998
 30
0.0
 40
1.0
 50
0.0
 51
90.0
  0
CIRCLE
  5
199
  8
0
  6
CONTINUOUS
 62
     3
 10
68.5
 20
255.40000000000001
 30
0.0
 40
3.0
  0
LINE
  5
19A
  8
0
  6
CONTINUOUS
 62
     3
 10
68.5
 20
253.40000000000001
 30
0.0
 11
69.0
 21
253.40000000000001
 31
0.0
  0
LINE
  5
19B
  8
0
  6
CONTINUOUS
 62
     3
 10
69.0
 20
253.40000000000001
 30
0.0
 11
69.0
 21
254.89999999999989
 31
0.0
  0
LINE
  5
19C
  8
0
  6
CONTINUOUS
 62
     3
 10
69.0
 20
254.89999999999989
 30
0.0
 11
70.5
 21
254.89999999999989
 31
0.0
  0
LINE
  5
19D
  8
0
  6
CONTINUOUS
 62
     3
 10
70.5
 20
254.89999999999989
 30
0.0
 11
70.5
 21
255.90000000000001
 31
0.0
  0
LINE
  5
19E
  8
0
  6
CONTINUOUS
 62
     3
 10
70.5
 20
255.90000000000001
 30
0.0
 11
69.0
 21
255.90000000000001
 31
0.0
  0
LINE
  5
19F
  8
0
  6
CONTINUOUS
 62
     3
 10
69.0
 20
255.90000000000001
 30
0.0
 11
69.0
 21
257.39999999999992
 31
0.0
  0
LINE
  5
1A0
  8
0
  6
CONTINUOUS
 62
     3
 10
69.0
 20
257.39999999999992
 30
0.0
 11
68.0
 21
257.39999999999992
 31
0.0
  0
LINE
  5
1A1
  8
0
  6
CONTINUOUS
 62
     3
 10
68.0
 20
257.39999999999992
 30
0.0
 11
68.0
 21
255.90000000000001
 31
0.0
  0
LINE
  5
1A2
  8
0
  6
CONTINUOUS
 62
     3
 10
68.0
 20
255.90000000000001
 30
0.0
 11
66.5
 21
255.90000000000001
 31
0.0
  0
LINE
  5
1A3
  8
0
  6
CONTINUOUS
 62
     3
 10
66.5
 20
255.90000000000001
 30
0.0
 11
66.5
 21
254.89999999999989
 31
0.0
  0
LINE
  5
1A4
  8
0
  6
CONTINUOUS
 62
     3
 10
66.5
 20
254.89999999999989
 30
0.0
 11
68.0
 21
254.89999999999989
 31
0.0
  0
LINE
  5
1A5
  8
0
  6
CONTINUOUS
 62
     3
 10
68.0
 20
254.89999999999989
 30
0.0
 11
68.0
 21
253.40000000000001
 31
0.0
  0
LINE
  5
1A6
  8
0
  6
CONTINUOUS
 62
     3
 10
68.0
 20
253.40000000000001
 30
0.0
 11
68.5
 21
253.40000000000001
 31
0.0
  0
LINE
  5
1A7
  8
0
  6
CONTINUOUS
 62
     3
 10
72.900000000000006
 20
261.25
 30
0.0
 11
72.900000000000006
 21
251.0
 31
0.0
  0
ARC
  5
1A8
  8
0
  6
CONTINUOUS
 62
     3
 10
71.90000000000002
 20
251.0
 30
0.0
 40
1.0
 50
270.0
 51
0.0
  0
LINE
  5
1A9
  8
0
  6
CONTINUOUS
 62
     3
 10
71.90000000000002
 20
250.0
 30
0.0
 11
65.099999999999994
 21
250.0
 31
0.0
  0
LINE
  5
1AA
  8
0
  6
CONTINUOUS
 62
     3
 10
64.099999999999994
 20
261.25
 30
0.0
 11
64.099999999999994
 21
251.0
 31
0.0
  0
ARC
  5
1AB
  8
0
  6
CONTINUOUS
 62
     3
 10
65.099999999999994
 20
251.0
 30
0.0
 40
1.0
 50
180.0
 51
270.0
  0
LINE
  5
1AC
  8
0
  6
CONTINUOUS
 62
     3
 10
62.399999999999999
 20
261.25
 30
0.0
 11
62.399999999999999
 21
251.0
 31
0.0
  0
ARC
  5
1AD
  8
0
  6
CONTINUOUS
 62
     3
 10
61.399999999999999
 20
251.0
 30
0.0
 40
1.0
 50
270.0
 51
0.0
  0
LINE
  5
1AE
  8
0
  6
CONTINUOUS
 62
     3
 10
61.399999999999999
 20
250.0
 30
0.0
 11
54.600000000000001
 21
250.0
 31
0.0
  0
LINE
  5
1AF
  8
0
  6
CONTINUOUS
 62
     3
 10
53.600000000000001
 20
261.25
 30
0.0
 11
53.600000000000001
 21
251.0
 31
0.0
  0
ARC
  5
1B0
  8
0
  6
CONTINUOUS
 62
     3
 10
54.600000000000001
 20
251.0
 30
0.0
 40
1.0
 50
180.0
 51
270.0
  0
CIRCLE
  5
1B1
  8
0
  6
CONTINUOUS
 62
     3
 10
79.0
 20
255.40000000000001
 30
0.0
 40
3.0
  0
LINE
  5
1B2
  8
0
  6
CONTINUOUS
 62
     3
 10
79.0
 20
253.40000000000001
 30
0.0
 11
79.5
 21
253.40000000000001
 31
0.0
  0
LINE
  5
1B3
  8
0
  6
CONTINUOUS
 62
     3
 10
79.5
 20
253.40000000000001
 30
0.0
 11
79.5
 21
254.89999999999989
 31
0.0
  0
LINE
  5
1B4
  8
0
  6
CONTINUOUS
 62
     3
 10
79.5
 20
254.89999999999989
 30
0.0
 11
81.0
 21
254.89999999999989
 31
0.0
  0
LINE
  5
1B5
  8
0
  6
CONTINUOUS
 62
     3
 10
81.0
 20
254.89999999999989
 30
0.0
 11
81.0
 21
255.90000000000001
 31
0.0
  0
LINE
  5
1B6
  8
0
  6
CONTINUOUS
 62
     3
 10
81.0
 20
255.90000000000001
 30
0.0
 11
79.5
 21
255.90000000000001
 31
0.0
  0
LINE
  5
1B7
  8
0
  6
CONTINUOUS
 62
     3
 10
79.5
 20
255.90000000000001
 30
0.0
 11
79.5
 21
257.39999999999992
 31
0.0
  0
LINE
  5
1B8
  8
0
  6
CONTINUOUS
 62
     3
 10
79.5
 20
257.39999999999992
 30
0.0
 11
78.5
 21
257.39999999999992
 31
0.0
  0
LINE
  5
1B9
  8
0
  6
CONTINUOUS
 62
     3
 10
78.5
 20
257.39999999999992
 30
0.0
 11
78.5
 21
255.90000000000001
 31
0.0
  0
LINE
  5
1BA
  8
0
  6
CONTINUOUS
 62
     3
 10
78.5
 20
255.90000000000001
 30
0.0
 11
77.0
 21
255.90000000000001
 31
0.0
  0
LINE
  5
1BB
  8
0
  6
CONTINUOUS
 62
     3
 10
77.0
 20
255.90000000000001
 30
0.0
 11
77.0
 21
254.89999999999989
 31
0.0
  0
LINE
  5
1BC
  8
0
  6
CONTINUOUS
 62
     3
 10
77.0
 20
254.89999999999989
 30
0.0
 11
78.5
 21
254.89999999999989
 31
0.0
  0
LINE
  5
1BD
  8
0
  6
CONTINUOUS
 62
     3
 10
78.5
 20
254.89999999999989
 30
0.0
 11
78.5
 21
253.40000000000001
 31
0.0
  0
LINE
  5
1BE
  8
0
  6
CONTINUOUS
 62
     3
 10
78.5
 20
253.40000000000001
 30
0.0
 11
79.0
 21
253.40000000000001
 31
0.0
  0
LINE
  5
1BF
  8
0
  6
CONTINUOUS
 62
     3
 10
83.400000000000006
 20
261.25
 30
0.0
 11
83.400000000000006
 21
251.0
 31
0.0
  0
ARC
  5
1C0
  8
0
  6
CONTINUOUS
 62
     3
 10
82.400000000000006
 20
251.0
 30
0.0
 40
1.0
 50
270.0
 51
0.0
  0
LINE
  5
1C1
  8
0
  6
CONTINUOUS
 62
     3
 10
82.400000000000006
 20
250.0
 30
0.0
 11
75.59999999999998
 21
250.0
 31
0.0
  0
LINE
  5
1C2
  8
0
  6
CONTINUOUS
 62
     3
 10
74.59999999999998
 20
261.25
 30
0.0
 11
74.59999999999998
 21
251.0
 31
0.0
  0
ARC
  5
1C3
  8
0
  6
CONTINUOUS
 62
     3
 10
75.59999999999998
 20
251.0
 30
0.0
 40
1.0
 50
180.0
 51
270.0
  0
LINE
  5
1C4
  8
0
  6
CONTINUOUS
 62
     3
 10
84.0
 20
261.25
 30
0.0
 11
53.0
 21
261.25
 31
0.0
  0
LINE
  5
1C5
  8
0
  6
CONTINUOUS
 62
     3
 10
51.5
 20
259.75
 30
0.0
 11
51.5
 21
250.0
 31
0.0
  0
ARC
  5
1C6
  8
0
  6
CONTINUOUS
 62
     3
 10
53.0
 20
259.75
 30
0.0
 40
1.5
 50
90.0
 51
180.0
  0
LINE
  5
1C7
  8
0
  6
CONTINUOUS
 62
     3
 10
84.500000000000014
 20
250.0
 30
0.0
 11
75.59999999999998
 21
250.0
 31
0.0
  0
ARC
  5
1C8
  8
0
  6
CONTINUOUS
 62
     3
 10
84.0
 20
259.75
 30
0.0
 40
1.5
 50
0.0
 51
90.0
  0
LINE
  5
1C9
  8
0
  6
CONTINUOUS
 62
     3
 10
85.5
 20
193.0
 30
0.0
 11
85.5
 21
259.75
 31
0.0
  0
LINE
  5
1CA
  8
0
  6
CONTINUOUS
 62
     3
 10
51.5
 20
250.0
 30
0.0
 11
41.5
 21
250.0
 31
0.0
  0
LINE
  5
1CB
  8
0
  6
CONTINUOUS
 62
     3
 10
61.399999999999999
 20
250.0
 30
0.0
 11
54.600000000000001
 21
250.0
 31
0.0
  0
LINE
  5
1CC
  8
0
  6
CONTINUOUS
 62
     3
 10
71.90000000000002
 20
250.0
 30
0.0
 11
65.099999999999994
 21
250.0
 31
0.0
  0
LINE
  5
1CD
  8
0
  6
CONTINUOUS
 62
     3
 10
84.500000000000014
 20
250.0
 30
0.0
 11
75.59999999999998
 21
250.0
 31
0.0
  0
LINE
  5
1CE
  8
0
  6
CONTINUOUS
 62
     1
 10
51.5
 20
250.0
 30
0.0
 11
54.600000000000001
 21
250.0
 31
0.0
  0
LINE
  5
1CF
  8
0
  6
CONTINUOUS
 62
     1
 10
61.399999999999999
 20
250.0
 30
0.0
 11
65.099999999999994
 21
250.0
 31
0.0
  0
LINE
  5
1D0
  8
0
  6
CONTINUOUS
 62
     1
 10
71.90000000000002
 20
250.0
 30
0.0
 11
75.59999999999998
 21
250.0
 31
0.0
  0
LINE
  5
1D1
  8
0
  6
CONTINUOUS
 62
     1
 10
50.399999999999999
 20
192.0
 30
0.0
 11
54.100000000000001
 21
192.0
 31
0.0
  0
LINE
  5
1D2
  8
0
  6
CONTINUOUS
 62
     1
 10
60.899999999999991
 20
192.0
 30
0.0
 11
64.599999999999994
 21
192.0
 31
0.0
  0
CIRCLE
  5
1D3
  8
0
  6
CONTINUOUS
 62
     1
 10
58.0
 20
255.40000000000001
 30
0.0
 40
1.0
  0
LINE
  5
1DB
  8
0
  6
CONTINUOUS
 62
     3
 10
79.450000000000003
 20
188.79031961099989
 30
0.0
 11
79.450000000000003
 21
184.40968038899999
 31
0.0
  0
LINE
  5
1DC
  8
0
  6
CONTINUOUS
 62
     3
 10
83.549999999999997
 20
188.79031961099989
 30
0.0
 11
83.549999999999997
 21
184.40968038899999
 31
0.0
  0
ARC
  5
1DD
  8
0
  6
CONTINUOUS
 62
     3
 10
81.5
 20
186.59999999999991
 30
0.0
 40
3.0
 50
46.895326179999998
 51
133.1046738199999
  0
ARC
  5
1DE
  8
0
  6
CONTINUOUS
 62
     3
 10
81.5
 20
186.59999999999991
 30
0.0
 40
3.0
 50
226.89532618000001
 51
313.10467382000002
  0
LINE
  5
1DF
  8
0
  6
CONTINUOUS
 62
     3
 10
46.549999999999997
 20
253.209680389
 30
0.0
 11
46.549999999999997
 21
257.59031961099998
 31
0.0
  0
LINE
  5
1E0
  8
0
  6
CONTINUOUS
 62
     3
 10
42.450000000000003
 20
253.209680389
 30
0.0
 11
42.450000000000003
 21
257.59031961099998
 31
0.0
  0
ARC
  5
1E1
  8
0
  6
CONTINUOUS
 62
     3
 10
44.5
 20
255.40000000000001
 30
0.0
 40
3.0
 50
226.89532618000001
 51
313.10467382000002
  0
ARC
  5
1E2
  8
0
  6
CONTINUOUS
 62
     3
 10
44.5
 20
255.40000000000001
 30
0.0
 40
3.0
 50
46.895326179999998
 51
133.1046738199999
  0
LINE
  5
1E3
  8
0
  6
CONTINUOUS
 62
     3
 10
74.430908802000005
 20
181.7999999999999
 30
0.0
 11
83.950000000000017
 21
181.7999999999999
 31
0.0
  0
LINE
  5
1E4
  8
0
  6
CONTINUOUS
 62
     3
 10
84.950000000000003
 20
192.10697144499991
 30
0.0
 11
84.950000000000003
 21
182.80000000000001
 31
0.0
  0
LINE
  5
1E5
  8
0
  6
CONTINUOUS
 62
     3
 10
83.950000000000017
 20
181.7999999999999
 30
0.0
 11
84.950000000000003
 21
182.80000000000001
 31
0.0
  0
LINE
  5
1E6
  8
0
  6
CONTINUOUS
 62
     3
 10
51.569091198000002
 20
260.19999999999987
 30
0.0
 11
42.049999999999997
 21
260.19999999999987
 31
0.0
  0
LINE
  5
1E7
  8
0
  6
CONTINUOUS
 62
     3
 10
41.04999999999999
 20
249.893028555
 30
0.0
 11
41.04999999999999
 21
259.19999999999999
 31
0.0
  0
LINE
  5
1E8
  8
0
  6
CONTINUOUS
 62
     3
 10
42.049999999999997
 20
260.19999999999987
 30
0.0
 11
41.04999999999999
 21
259.19999999999999
 31
0.0
  0
LINE
  5
1F1
  8
0
  6
CONTINUOUS
 62
     3
 10
124.6482835479999
 20
260.80083247499999
 30
0.0
 11
150.69999999999979
 21
261.25
 31
0.0
  0
ARC
  5
1F2
  8
0
  6
CONTINUOUS
 62
     3
 10
124.7
 20
257.80127827299992
 30
0.0
 40
3.0
 50
90.987760399999985
 51
180.0
  0
LINE
  5
1F3
  8
0
  6
CONTINUOUS
 62
     3
 10
121.7
 20
257.80127827299992
 30
0.0
 11
121.7
 21
249.62820512799999
 31
0.0
  0
LINE
  5
1F4
  8
0
  6
CONTINUOUS
 62
     3
 10
124.6482835479999
 20
181.19916752500001
 30
0.0
 11
150.69999999999979
 21
180.75
 31
0.0
  0
ARC
  5
1F5
  8
0
  6
CONTINUOUS
 62
     3
 10
124.7
 20
184.19872172699999
 30
0.0
 40
3.0
 50
180.0
 51
269.01223959999999
  0
LINE
  5
1F6
  8
0
  6
CONTINUOUS
 62
     3
 10
121.7
 20
184.19872172699999
 30
0.0
 11
121.7
 21
192.37179487200001
 31
0.0
  0
LINE
  5
1F7
  8
0
  6
CONTINUOUS
 62
     3
 10
121.7
 20
192.37179487200001
 30
0.0
 11
150.69999999999979
 21
192.0
 31
0.0
  0
LINE
  5
1F8
  8
0
  6
CONTINUOUS
 62
     3
 10
150.69999999999979
 20
181.7999999999999
 30
0.0
 11
149.69999999999979
 21
181.7999999999999
 31
0.0
  0
LINE
  5
1F9
  8
0
  6
CONTINUOUS
 62
     3
 10
149.69999999999979
 20
181.7999999999999
 30
0.0
 11
149.69999999999979
 21
191.80000000000001
 31
0.0
  0
LINE
  5
1FA
  8
0
  6
CONTINUOUS
 62
     3
 10
150.69999999999979
 20
181.7999999999999
 30
0.0
 11
151.6999999999999
 21
181.7999999999999
 31
0.0
  0
LINE
  5
1FB
  8
0
  6
CONTINUOUS
 62
     3
 10
151.6999999999999
 20
181.7999999999999
 30
0.0
 11
151.6999999999999
 21
195.80000000000001
 31
0.0
  0
LINE
  5
1FC
  8
0
  6
CONTINUOUS
 62
     3
 10
150.69999999999979
 20
260.19999999999987
 30
0.0
 11
151.6999999999999
 21
260.19999999999987
 31
0.0
  0
LINE
  5
1FD
  8
0
  6
CONTINUOUS
 62
     3
 10
150.69999999999979
 20
261.25
 30
0.0
 11
150.69999999999979
 21
192.0
 31
0.0
  0
LINE
  5
1FE
  8
0
  6
CONTINUOUS
 62
     3
 10
151.6999999999999
 20
260.19999999999987
 30
0.0
 11
151.6999999999999
 21
195.80000000000001
 31
0.0
  0
LINE
  5
1FF
  8
0
  6
CONTINUOUS
 62
     3
 10
40.499999999999993
 20
104.90000000000001
 30
0.0
 11
85.5
 21
104.90000000000001
 31
0.0
  0
LINE
  5
200
  8
0
  6
CONTINUOUS
 62
     3
 10
74.099999999999994
 20
133.90000000000001
 30
0.0
 11
74.5
 21
104.90000000000001
 31
0.0
  0
LINE
  5
201
  8
0
  6
CONTINUOUS
 62
     3
 10
42.799999999999997
 20
125.90000000000001
 30
0.0
 11
42.600000000000001
 21
133.90000000000001
 31
0.0
  0
LINE
  5
202
  8
0
  6
CONTINUOUS
 62
     3
 10
51.200000000000003
 20
125.90000000000001
 30
0.0
 11
51.399999999999999
 21
133.90000000000001
 31
0.0
  0
LINE
  5
203
  8
0
  6
CONTINUOUS
 62
     3
 10
42.799999999999997
 20
125.90000000000001
 30
0.0
 11
51.200000000000003
 21
125.90000000000001
 31
0.0
  0
LINE
  5
204
  8
0
  6
CONTINUOUS
 62
     3
 10
53.299999999999997
 20
125.90000000000001
 30
0.0
 11
53.100000000000001
 21
133.90000000000001
 31
0.0
  0
LINE
  5
205
  8
0
  6
CONTINUOUS
 62
     3
 10
61.700000000000003
 20
125.90000000000001
 30
0.0
 11
61.899999999999999
 21
133.90000000000001
 31
0.0
  0
LINE
  5
206
  8
0
  6
CONTINUOUS
 62
     3
 10
53.299999999999997
 20
125.90000000000001
 30
0.0
 11
61.700000000000003
 21
125.90000000000001
 31
0.0
  0
LINE
  5
207
  8
0
  6
CONTINUOUS
 62
     3
 10
63.79999999999999
 20
125.90000000000001
 30
0.0
 11
63.600000000000001
 21
133.90000000000001
 31
0.0
  0
LINE
  5
208
  8
0
  6
CONTINUOUS
 62
     3
 10
72.200000000000003
 20
125.90000000000001
 30
0.0
 11
72.400000000000006
 21
133.90000000000001
 31
0.0
  0
LINE
  5
209
  8
0
  6
CONTINUOUS
 62
     3
 10
63.79999999999999
 20
125.90000000000001
 30
0.0
 11
72.200000000000003
 21
125.90000000000001
 31
0.0
  0
LINE
  5
20A
  8
0
  6
CONTINUOUS
 62
     3
 10
41.0
 20
133.90000000000001
 30
0.0
 11
42.600000000000001
 21
133.90000000000001
 31
0.0
  0
LINE
  5
20B
  8
0
  6
CONTINUOUS
 62
     3
 10
51.399999999999999
 20
133.90000000000001
 30
0.0
 11
53.100000000000001
 21
133.90000000000001
 31
0.0
  0
LINE
  5
20C
  8
0
  6
CONTINUOUS
 62
     3
 10
72.400000000000006
 20
133.90000000000001
 30
0.0
 11
74.099999999999994
 21
133.90000000000001
 31
0.0
  0
LINE
  5
20D
  8
0
  6
CONTINUOUS
 62
     3
 10
61.899999999999999
 20
133.90000000000001
 30
0.0
 11
63.600000000000001
 21
133.90000000000001
 31
0.0
  0
LINE
  5
20E
  8
0
  6
CONTINUOUS
 62
     3
 10
40.499999999999993
 20
104.90000000000001
 30
0.0
 11
40.987953588000003
 21
144.912194215
 31
0.0
  0
ARC
  5
20F
  8
0
  6
CONTINUOUS
 62
     3
 10
41.987879235999998
 20
144.90000000000001
 30
0.0
 40
1.0
 50
90.0
 51
179.3013056169998
  0
LINE
  5
210
  8
0
  6
CONTINUOUS
 62
     3
 10
41.987879235999998
 20
145.90000000000001
 30
0.0
 11
83.963324662000005
 21
145.90000000000001
 31
0.0
  0
LINE
  5
211
  8
0
  6
CONTINUOUS
 62
     3
 10
85.5
 20
104.90000000000001
 30
0.0
 11
84.963234698000008
 21
144.91341342699991
 31
0.0
  0
ARC
  5
212
  8
0
  6
CONTINUOUS
 62
     3
 10
83.963324662000005
 20
144.90000000000001
 30
0.0
 40
1.0
 50
0.7685558210000001
 51
90.0
  0
LINE
  5
213
  8
0
  6
CONTINUOUS
 62
     3
 10
41.0
 20
104.90000000000001
 30
0.0
 11
41.0
 21
103.90000000000001
 31
0.0
  0
LINE
  5
214
  8
0
  6
CONTINUOUS
 62
     3
 10
84.950000000000003
 20
104.90000000000001
 30
0.0
 11
84.950000000000003
 21
103.90000000000001
 31
0.0
  0
LINE
  5
215
  8
0
  6
CONTINUOUS
 62
     3
 10
84.950000000000003
 20
103.90000000000001
 30
0.0
 11
41.0
 21
103.90000000000001
 31
0.0
  0
LINE
  5
216
  8
0
  6
CONTINUOUS
 62
     3
 10
42.0
 20
103.90000000000001
 30
0.0
 11
42.0
 21
104.90000000000001
 31
0.0
  0
LINE
  5
217
  8
0
  6
CONTINUOUS
 62
     3
 10
83.950000000000017
 20
103.90000000000001
 30
0.0
 11
83.950000000000017
 21
104.90000000000001
 31
0.0
  0
LINE
  5
218
  8
0
  6
CONTINUOUS
 62
     3
 10
47.0
 20
126.90000000000001
 30
0.0
 11
44.200000000000003
 21
126.90000000000001
 31
0.0
  0
LINE
  5
219
  8
0
  6
CONTINUOUS
 62
     3
 10
44.200000000000003
 20
126.90000000000001
 30
0.0
 11
44.200000000000003
 21
125.90000000000001
 31
0.0
  0
LINE
  5
21A
  8
0
  6
CONTINUOUS
 62
     3
 10
49.799999999999997
 20
126.90000000000001
 30
0.0
 11
49.799999999999997
 21
125.90000000000001
 31
0.0
  0
LINE
  5
21B
  8
0
  6
CONTINUOUS
 62
     3
 10
47.0
 20
126.90000000000001
 30
0.0
 11
46.039999999999999
 21
125.89
 31
0.0
  0
LINE
  5
21C
  8
0
  6
CONTINUOUS
 62
     3
 10
47.75
 20
126.84999999999989
 30
0.0
 11
47.0
 21
125.90000000000001
 31
0.0
  0
LINE
  5
21D
  8
0
  6
CONTINUOUS
 62
     3
 10
44.200000000000003
 20
126.90000000000001
 30
0.0
 11
43.899999999999991
 21
126.90000000000001
 31
0.0
  0
LINE
  5
21E
  8
0
  6
CONTINUOUS
 62
     3
 10
44.899999999999999
 20
128.90000000000001
 30
0.0
 11
47.0
 21
128.90000000000001
 31
0.0
  0
LINE
  5
21F
  8
0
  6
CONTINUOUS
 62
     3
 10
43.899999999999991
 20
126.90000000000001
 30
0.0
 11
43.899999999999991
 21
127.90000000000001
 31
0.0
  0
ARC
  5
220
  8
0
  6
CONTINUOUS
 62
     3
 10
44.899999999999999
 20
127.90000000000001
 30
0.0
 40
1.0
 50
90.0
 51
180.0
  0
LINE
  5
221
  8
0
  6
CONTINUOUS
 62
     3
 10
49.100000000000001
 20
128.90000000000001
 30
0.0
 11
47.0
 21
128.90000000000001
 31
0.0
  0
ARC
  5
222
  8
0
  6
CONTINUOUS
 62
     3
 10
49.100000000000001
 20
127.90000000000001
 30
0.0
 40
1.0
 50
0.0
 51
90.0
  0
POLYLINE
  5
223
  8
0
 62
     3
 66
     1
 10
0.0
 20
0.0
 30
0.0
  0
VERTEX
  5
364
  8
0
 62
     3
 10
47.0
 20
126.90000000000001
 30
0.0
  0
VERTEX
  5
365
  8
0
 62
     3
 10
50.100000000000001
 20
126.90000000000001
 30
0.0
  0
VERTEX
  5
366
  8
0
 62
     3
 10
50.100000000000001
 20
127.90000000000001
 30
0.0
  0
SEQEND
  5
367
  8
0
 62
     3
  0
LINE
  5
228
  8
0
  6
CONTINUOUS
 62
     3
 10
57.5
 20
126.90000000000001
 30
0.0
 11
54.700000000000003
 21
126.90000000000001
 31
0.0
  0
LINE
  5
229
  8
0
  6
CONTINUOUS
 62
     3
 10
54.700000000000003
 20
126.90000000000001
 30
0.0
 11
54.700000000000003
 21
125.90000000000001
 31
0.0
  0
LINE
  5
22A
  8
0
  6
CONTINUOUS
 62
     3
 10
60.299999999999997
 20
126.90000000000001
 30
0.0
 11
60.299999999999997
 21
125.90000000000001
 31
0.0
  0
LINE
  5
22B
  8
0
  6
CONTINUOUS
 62
     3
 10
57.5
 20
126.90000000000001
 30
0.0
 11
56.539999999999992
 21
125.89
 31
0.0
  0
LINE
  5
22C
  8
0
  6
CONTINUOUS
 62
     3
 10
58.25
 20
126.84999999999989
 30
0.0
 11
57.5
 21
125.90000000000001
 31
0.0
  0
LINE
  5
22D
  8
0
  6
CONTINUOUS
 62
     3
 10
54.700000000000003
 20
126.90000000000001
 30
0.0
 11
54.399999999999999
 21
126.90000000000001
 31
0.0
  0
LINE
  5
22E
  8
0
  6
CONTINUOUS
 62
     3
 10
55.399999999999999
 20
128.90000000000001
 30
0.0
 11
57.5
 21
128.90000000000001
 31
0.0
  0
LINE
  5
22F
  8
0
  6
CONTINUOUS
 62
     3
 10
54.399999999999999
 20
126.90000000000001
 30
0.0
 11
54.399999999999999
 21
127.90000000000001
 31
0.0
  0
ARC
  5
230
  8
0
  6
CONTINUOUS
 62
     3
 10
55.399999999999999
 20
127.90000000000001
 30
0.0
 40
1.0
 50
90.0
 51
180.0
  0
LINE
  5
231
  8
0
  6
CONTINUOUS
 62
     3
 10
59.600000000000001
 20
128.90000000000001
 30
0.0
 11
57.5
 21
128.90000000000001
 31
0.0
  0
ARC
  5
232
  8
0
  6
CONTINUOUS
 62
     3
 10
59.600000000000001
 20
127.90000000000001
 30
0.0
 40
1.0
 50
0.0
 51
90.0
  0
POLYLINE
  5
233
  8
0
 62
     3
 66
     1
 10
0.0
 20
0.0
 30
0.0
  0
VERTEX
  5
368
  8
0
 62
     3
 10
57.5
 20
126.90000000000001
 30
0.0
  0
VERTEX
  5
369
  8
0
 62
     3
 10
60.600000000000001
 20
126.90000000000001
 30
0.0
  0
VERTEX
  5
36A
  8
0
 62
     3
 10
60.600000000000001
 20
127.90000000000001
 30
0.0
  0
SEQEND
  5
36B
  8
0
 62
     3
  0
LINE
  5
238
  8
0
  6
CONTINUOUS
 62
     4
 10
96.159999999999997
 20
255.40000000000001
 30
0.0
 11
95.694125718999999
 21
253.66133351299979
 31
0.0
  0
LINE
  5
239
  8
0
  6
CONTINUOUS
 62
     4
 10
96.159999999999997
 20
255.40000000000001
 30
0.0
 11
96.625874281000009
 21
253.66133351299979
 31
0.0
  0
LINE
  5
23A
  8
0
  6
CONTINUOUS
 62
     4
 10
96.159999999999997
 20
255.40000000000001
 30
0.0
 11
96.159999999999997
 21
186.59999999999991
 31
0.0
  0
LINE
  5
23B
  8
0
  6
CONTINUOUS
 62
     4
 10
96.159999999999997
 20
186.59999999999991
 30
0.0
 11
96.625874281000009
 21
188.33866648700001
 31
0.0
  0
LINE
  5
23C
  8
0
  6
CONTINUOUS
 62
     4
 10
96.159999999999997
 20
186.59999999999991
 30
0.0
 11
95.694125718999999
 21
188.33866648700001
 31
0.0
  0
TEXT
  5
23D
  8
0
  6
CONTINUOUS
 62
     4
 10
95.159999999999997
 20
218.5
 30
0.0
 40
3.0
  1
６９
 50
90.0
 41
0.833333333
  7
KANJI13
  0
LINE
  5
23E
  8
0
  6
CONTINUOUS
 62
     4
 10
58.0
 20
273.23000000000002
 30
0.0
 11
59.738666486999989
 21
272.76412571899999
 31
0.0
  0
LINE
  5
23F
  8
0
  6
CONTINUOUS
 62
     4
 10
58.0
 20
273.23000000000002
 30
0.0
 11
59.738666486999989
 21
273.69587428099987
 31
0.0
  0
LINE
  5
240
  8
0
  6
CONTINUOUS
 62
     4
 10
58.0
 20
273.23000000000002
 30
0.0
 11
79.0
 21
273.23000000000002
 31
0.0
  0
LINE
  5
241
  8
0
  6
CONTINUOUS
 62
     4
 10
79.0
 20
273.23000000000002
 30
0.0
 11
77.261333512999983
 21
273.69587428099987
 31
0.0
  0
LINE
  5
242
  8
0
  6
CONTINUOUS
 62
     4
 10
79.0
 20
273.23000000000002
 30
0.0
 11
77.261333512999983
 21
272.76412571899999
 31
0.0
  0
TEXT
  5
243
  8
0
  6
CONTINUOUS
 62
     4
 10
66.0
 20
274.23000000000002
 30
0.0
 40
3.0
  1
２１
 41
0.833333333
  7
KANJI13
  0
LINE
  5
244
  8
0
  6
CONTINUOUS
 62
     4
 10
68.5
 20
267.47000000000003
 30
0.0
 11
70.238666487000003
 21
267.00412571899977
 31
0.0
  0
LINE
  5
245
  8
0
  6
CONTINUOUS
 62
     4
 10
68.5
 20
267.47000000000003
 30
0.0
 11
70.238666487000003
 21
267.93587428099983
 31
0.0
  0
LINE
  5
246
  8
0
  6
CONTINUOUS
 62
     4
 10
68.5
 20
267.47000000000003
 30
0.0
 11
79.0
 21
267.47000000000003
 31
0.0
  0
LINE
  5
247
  8
0
  6
CONTINUOUS
 62
     4
 10
79.0
 20
267.47000000000003
 30
0.0
 11
77.261333512999983
 21
267.93587428099983
 31
0.0
  0
LINE
  5
248
  8
0
  6
CONTINUOUS
 62
     4
 10
79.0
 20
267.47000000000003
 30
0.0
 11
77.261333512999983
 21
267.00412571899977
 31
0.0
  0
LINE
  5
249
  8
0
  6
CONTINUOUS
 62
     4
 10
79.0
 20
266.35000000000002
 30
0.0
 11
79.0
 21
268.47000000000003
 31
0.0
  0
TEXT
  5
24A
  8
0
  6
CONTINUOUS
 62
     4
 10
68.75
 20
268.47000000000003
 30
0.0
 40
3.0
  1
１０.５
 41
0.833333333
  7
KANJI13
  0
LINE
  5
24B
  8
0
  6
CONTINUOUS
 62
     4
 10
47.0
 20
166.06
 30
0.0
 11
48.738666486999989
 21
165.594125719
 31
0.0
  0
LINE
  5
24C
  8
0
  6
CONTINUOUS
 62
     4
 10
47.0
 20
166.06
 30
0.0
 11
48.738666486999989
 21
166.525874281
 31
0.0
  0
LINE
  5
24D
  8
0
  6
CONTINUOUS
 62
     4
 10
47.0
 20
166.06
 30
0.0
 11
68.0
 21
166.06
 31
0.0
  0
LINE
  5
24E
  8
0
  6
CONTINUOUS
 62
     4
 10
68.0
 20
166.06
 30
0.0
 11
66.261333512999997
 21
166.525874281
 31
0.0
  0
LINE
  5
24F
  8
0
  6
CONTINUOUS
 62
     4
 10
68.0
 20
166.06
 30
0.0
 11
66.261333512999997
 21
165.594125719
 31
0.0
  0
TEXT
  5
250
  8
0
  6
CONTINUOUS
 62
     4
 10
55.0
 20
167.06
 30
0.0
 40
3.0
  1
２１
 41
0.833333333
  7
KANJI13
  0
LINE
  5
251
  8
0
  6
CONTINUOUS
 62
     4
 10
57.5
 20
173.27000000000001
 30
0.0
 11
59.238666486999982
 21
172.80412571900001
 31
0.0
  0
LINE
  5
252
  8
0
  6
CONTINUOUS
 62
     4
 10
57.5
 20
173.27000000000001
 30
0.0
 11
59.238666486999982
 21
173.73587428099981
 31
0.0
  0
LINE
  5
253
  8
0
  6
CONTINUOUS
 62
     4
 10
57.5
 20
173.27000000000001
 30
0.0
 11
68.0
 21
173.27000000000001
 31
0.0
  0
LINE
  5
254
  8
0
  6
CONTINUOUS
 62
     4
 10
68.0
 20
173.27000000000001
 30
0.0
 11
66.261333512999997
 21
173.73587428099981
 31
0.0
  0
LINE
  5
255
  8
0
  6
CONTINUOUS
 62
     4
 10
68.0
 20
173.27000000000001
 30
0.0
 11
66.261333512999997
 21
172.80412571900001
 31
0.0
  0
LINE
  5
256
  8
0
  6
CONTINUOUS
 62
     4
 10
68.0
 20
173.6699999999999
 30
0.0
 11
68.0
 21
174.27000000000001
 31
0.0
  0
TEXT
  5
257
  8
0
  6
CONTINUOUS
 62
     4
 10
57.75
 20
174.27000000000001
 30
0.0
 40
3.0
  1
１０.５
 41
0.833333333
  7
KANJI13
  0
LINE
  5
258
  8
0
  6
CONTINUOUS
 62
     4
 10
82.629999999999981
 20
183.34
 30
0.0
 11
82.651547855000004
 21
181.54012897999999
 31
0.0
  0
LINE
  5
259
  8
0
  6
CONTINUOUS
 62
     4
 10
82.629999999999981
 20
183.34
 30
0.0
 11
83.548596499999988
 21
181.79203989999991
 31
0.0
  0
LINE
  5
25A
  8
0
  6
CONTINUOUS
 62
     4
 10
82.629999999999981
 20
183.34
 30
0.0
 11
85.5
 21
173.12
 31
0.0
  0
LINE
  5
25B
  8
0
  6
CONTINUOUS
 62
     4
 10
85.5
 20
173.12
 30
0.0
 11
105.4999999999999
 21
173.12
 31
0.0
  0
TEXT
  5
25C
  8
0
  6
CONTINUOUS
 62
     4
 10
85.5
 20
174.12
 30
0.0
 40
3.0
  1
２－\U+03C6６\U+00D7４.１
 41
0.833333333
  7
KANJI13
  0
LINE
  5
25D
  8
0
  6
CONTINUOUS
 62
     3
 10
109.6999999999999
 20
248.51273833299999
 30
0.0
 11
109.6999999999999
 21
221.0
 31
0.0
  0
ARC
  5
25E
  8
0
  6
CONTINUOUS
 62
     3
 10
110.6999999999999
 20
248.51273833299999
 30
0.0
 40
1.0
 50
90.734521033999997
 51
180.0
  0
LINE
  5
25F
  8
0
  6
CONTINUOUS
 62
     3
 10
109.6999999999999
 20
193.48726166700001
 30
0.0
 11
109.6999999999999
 21
221.0
 31
0.0
  0
ARC
  5
260
  8
0
  6
CONTINUOUS
 62
     3
 10
110.6999999999999
 20
193.48726166700001
 30
0.0
 40
1.0
 50
180.0
 51
269.26547896599999
  0
LINE
  5
261
  8
0
  6
CONTINUOUS
 62
     3
 10
110.6871805409999
 20
249.48701513500001
 30
0.0
 11
121.7
 21
249.62820512799999
 31
0.0
  0
LINE
  5
262
  8
0
  6
CONTINUOUS
 62
     3
 10
110.6871805409999
 20
192.51298486499991
 30
0.0
 11
121.7
 21
192.37179487200001
 31
0.0
  0
LINE
  5
263
  8
0
  6
CONTINUOUS
 62
     3
 10
150.69999999999979
 20
180.75
 30
0.0
 11
150.69999999999979
 21
181.7999999999999
 31
0.0
  0
LINE
  5
264
  8
0
  6
CONTINUOUS
 62
     4
 10
151.19999999999999
 20
261.25
 30
0.0
 11
167.09999999999999
 21
261.25
 31
0.0
  0
LINE
  5
265
  8
0
  6
CONTINUOUS
 62
     4
 10
166.09999999999999
 20
261.25
 30
0.0
 11
165.634125719
 21
259.51133351300001
 31
0.0
  0
LINE
  5
266
  8
0
  6
CONTINUOUS
 62
     4
 10
166.09999999999999
 20
261.25
 30
0.0
 11
166.56587428099991
 21
259.51133351300001
 31
0.0
  0
LINE
  5
267
  8
0
  6
CONTINUOUS
 62
     4
 10
166.09999999999999
 20
261.25
 30
0.0
 11
166.09999999999999
 21
180.75
 31
0.0
  0
LINE
  5
268
  8
0
  6
CONTINUOUS
 62
     4
 10
166.09999999999999
 20
180.75
 30
0.0
 11
166.56587428099991
 21
182.48866648699999
 31
0.0
  0
LINE
  5
269
  8
0
  6
CONTINUOUS
 62
     4
 10
166.09999999999999
 20
180.75
 30
0.0
 11
165.634125719
 21
182.48866648699999
 31
0.0
  0
LINE
  5
26A
  8
0
  6
CONTINUOUS
 62
     4
 10
151.19999999999999
 20
180.75
 30
0.0
 11
167.09999999999999
 21
180.75
 31
0.0
  0
TEXT
  5
26B
  8
0
  6
CONTINUOUS
 62
     4
 10
165.09999999999991
 20
216.0
 30
0.0
 40
3.0
  1
８０.５
 50
90.0
 41
0.833333333
  7
KANJI13
  0
LINE
  5
26C
  8
0
  6
CONTINUOUS
 62
     4
 10
40.499999999999993
 20
104.40000000000001
 30
0.0
 11
40.499999999999993
 21
91.560000000000002
 31
0.0
  0
LINE
  5
26D
  8
0
  6
CONTINUOUS
 62
     4
 10
40.499999999999993
 20
92.560000000000002
 30
0.0
 11
42.238666486999989
 21
92.09412571899999
 31
0.0
  0
LINE
  5
26E
  8
0
  6
CONTINUOUS
 62
     4
 10
40.499999999999993
 20
92.560000000000002
 30
0.0
 11
42.238666486999989
 21
93.025874281
 31
0.0
  0
LINE
  5
26F
  8
0
  6
CONTINUOUS
 62
     4
 10
40.499999999999993
 20
92.560000000000002
 30
0.0
 11
85.5
 21
92.560000000000002
 31
0.0
  0
LINE
  5
270
  8
0
  6
CONTINUOUS
 62
     4
 10
85.5
 20
92.560000000000002
 30
0.0
 11
83.761333512999997
 21
93.025874281
 31
0.0
  0
LINE
  5
271
  8
0
  6
CONTINUOUS
 62
     4
 10
85.5
 20
92.560000000000002
 30
0.0
 11
83.761333512999997
 21
92.09412571899999
 31
0.0
  0
LINE
  5
272
  8
0
  6
CONTINUOUS
 62
     4
 10
85.5
 20
104.40000000000001
 30
0.0
 11
85.5
 21
91.560000000000002
 31
0.0
  0
TEXT
  5
273
  8
0
  6
CONTINUOUS
 62
     4
 10
60.5
 20
93.559999999999988
 30
0.0
 40
3.0
  1
４５
 41
0.833333333
  7
KANJI13
  0
LINE
  5
274
  8
0
  6
CONTINUOUS
 62
     4
 10
48.068283547999997
 20
129.6891675249999
 30
0.0
 11
48.081124627000001
 21
131.489121721
 31
0.0
  0
LINE
  5
275
  8
0
  6
CONTINUOUS
 62
     4
 10
48.068283547999997
 20
129.6891675249999
 30
0.0
 11
47.179427150999999
 21
131.2543941239999
 31
0.0
  0
LINE
  5
276
  8
0
  6
CONTINUOUS
 62
     4
 10
48.068283547999997
 20
129.6891675249999
 30
0.0
 11
42.328283548000002
 21
151.739167525
 31
0.0
  0
LINE
  5
277
  8
0
  6
CONTINUOUS
 62
     4
 10
42.328283548000002
 20
151.739167525
 30
0.0
 11
32.328283548000002
 21
151.739167525
 31
0.0
  0
TEXT
  5
278
  8
0
  6
CONTINUOUS
 62
     4
 10
32.328283548000002
 20
152.739167525
 30
0.0
 40
3.0
  1
Ｍ３ネジ
 41
0.833333333
  7
KANJI13
  0
LINE
  5
279
  8
0
  6
CONTINUOUS
 62
     4
 10
109.6999999999999
 20
166.06
 30
0.0
 11
111.43866648700001
 21
165.594125719
 31
0.0
  0
LINE
  5
27A
  8
0
  6
CONTINUOUS
 62
     4
 10
109.6999999999999
 20
166.06
 30
0.0
 11
111.43866648700001
 21
166.525874281
 31
0.0
  0
LINE
  5
27B
  8
0
  6
CONTINUOUS
 62
     4
 10
109.6999999999999
 20
166.06
 30
0.0
 11
151.6999999999999
 21
166.06
 31
0.0
  0
LINE
  5
27C
  8
0
  6
CONTINUOUS
 62
     4
 10
151.6999999999999
 20
166.06
 30
0.0
 11
149.961333513
 21
166.525874281
 31
0.0
  0
LINE
  5
27D
  8
0
  6
CONTINUOUS
 62
     4
 10
151.6999999999999
 20
166.06
 30
0.0
 11
149.961333513
 21
165.594125719
 31
0.0
  0
TEXT
  5
27E
  8
0
  6
CONTINUOUS
 62
     4
 10
128.1999999999999
 20
167.06
 30
0.0
 40
3.0
  1
４２
 41
0.833333333
  7
KANJI13
  0
LINE
  5
27F
  8
0
  6
CONTINUOUS
 62
     4
 10
109.6999999999999
 20
191.13999999999999
 30
0.0
 11
109.6999999999999
 21
165.06
 31
0.0
  0
LINE
  5
280
  8
0
  6
CONTINUOUS
 62
     4
 10
151.6999999999999
 20
180.86999999999989
 30
0.0
 11
151.6999999999999
 21
165.06
 31
0.0
  0
LINE
  5
286
  8
0
  6
CONTINUOUS
 62
     4
 10
43.349999999999987
 20
186.59999999999991
 30
0.0
 11
97.160000000000011
 21
186.59999999999991
 31
0.0
  0
LINE
  5
287
  8
0
  6
CONTINUOUS
 62
     4
 10
47.0
 20
187.27999999999989
 30
0.0
 11
47.0
 21
165.06
 31
0.0
  0
LINE
  5
288
  8
0
  6
CONTINUOUS
 62
     4
 10
81.5
 20
159.47
 30
0.0
 11
79.761333512999983
 21
159.93587428099991
 31
0.0
  0
LINE
  5
289
  8
0
  6
CONTINUOUS
 62
     4
 10
81.5
 20
159.47
 30
0.0
 11
79.761333512999983
 21
159.004125719
 31
0.0
  0
LINE
  5
28A
  8
0
  6
CONTINUOUS
 62
     4
 10
81.5
 20
159.47
 30
0.0
 11
44.5
 21
159.47
 31
0.0
  0
LINE
  5
28B
  8
0
  6
CONTINUOUS
 62
     4
 10
44.5
 20
159.47
 30
0.0
 11
46.238666486999989
 21
159.004125719
 31
0.0
  0
LINE
  5
28C
  8
0
  6
CONTINUOUS
 62
     4
 10
44.5
 20
159.47
 30
0.0
 11
46.238666486999989
 21
159.93587428099991
 31
0.0
  0
TEXT
  5
28D
  8
0
  6
CONTINUOUS
 62
     4
 10
60.5
 20
160.47
 30
0.0
 40
3.0
  1
３７
 41
0.833333333
  7
KANJI13
  0
LINE
  5
28E
  8
0
  6
CONTINUOUS
 62
     4
 10
43.090000000000003
 20
255.40000000000001
 30
0.0
 11
97.160000000000011
 21
255.40000000000001
 31
0.0
  0
LINE
  5
28F
  8
0
  6
CONTINUOUS
 62
     4
 10
44.5
 20
256.44999999999987
 30
0.0
 11
44.5
 21
158.46999999999991
 31
0.0
  0
CIRCLE
  5
2B2
  8
0
  6
CONTINUOUS
 62
     3
 10
58.0
 20
255.40000000000001
 30
0.0
 40
3.0
  0
CIRCLE
  5
2B3
  8
0
  6
CONTINUOUS
 62
     3
 10
58.0
 20
255.40000000000001
 30
0.0
 40
1.5
  0
LINE
  5
2B4
  8
0
  6
CONTINUOUS
 62
     4
 10
81.5
 20
187.55000000000001
 30
0.0
 11
81.5
 21
158.46999999999991
 31
0.0
  0
LINE
  5
2B5
  8
0
  6
CONTINUOUS
 62
     4
 10
68.0
 20
188.40000000000001
 30
0.0
 11
68.0
 21
165.06
 31
0.0
  0
LINE
  5
2B6
  8
0
  6
CONTINUOUS
 62
     4
 10
57.5
 20
187.89999999999989
 30
0.0
 11
57.5
 21
172.27000000000001
 31
0.0
  0
LINE
  5
2B7
  8
0
  6
CONTINUOUS
 62
     4
 10
79.0
 20
254.24999999999989
 30
0.0
 11
79.0
 21
274.23000000000002
 31
0.0
  0
LINE
  5
2B8
  8
0
  6
CONTINUOUS
 62
     4
 10
68.5
 20
254.30000000000001
 30
0.0
 11
68.5
 21
268.47000000000003
 31
0.0
  0
LINE
  5
2B9
  8
0
  6
CONTINUOUS
 62
     4
 10
58.0
 20
253.33999999999989
 30
0.0
 11
58.0
 21
274.23000000000002
 31
0.0
  0
CIRCLE
  5
2C8
  8
0
  6
CONTINUOUS
 62
     3
 10
68.0
 20
186.59999999999991
 30
0.0
 40
3.0
  0
LINE
  5
2C9
  8
0
  6
CONTINUOUS
 62
     3
 10
68.0
 20
188.59999999999991
 30
0.0
 11
67.5
 21
188.59999999999991
 31
0.0
  0
LINE
  5
2CA
  8
0
  6
CONTINUOUS
 62
     3
 10
67.5
 20
188.59999999999991
 30
0.0
 11
67.5
 21
187.09999999999999
 31
0.0
  0
LINE
  5
2CB
  8
0
  6
CONTINUOUS
 62
     3
 10
67.5
 20
187.09999999999999
 30
0.0
 11
66.0
 21
187.09999999999999
 31
0.0
  0
LINE
  5
2CC
  8
0
  6
CONTINUOUS
 62
     3
 10
66.0
 20
187.09999999999999
 30
0.0
 11
66.0
 21
186.09999999999991
 31
0.0
  0
LINE
  5
2CD
  8
0
  6
CONTINUOUS
 62
     3
 10
66.0
 20
186.09999999999991
 30
0.0
 11
67.5
 21
186.09999999999991
 31
0.0
  0
LINE
  5
2CE
  8
0
  6
CONTINUOUS
 62
     3
 10
67.5
 20
186.09999999999991
 30
0.0
 11
67.5
 21
184.59999999999999
 31
0.0
  0
LINE
  5
2CF
  8
0
  6
CONTINUOUS
 62
     3
 10
67.5
 20
184.59999999999999
 30
0.0
 11
68.5
 21
184.59999999999999
 31
0.0
  0
LINE
  5
2D0
  8
0
  6
CONTINUOUS
 62
     3
 10
68.5
 20
184.59999999999999
 30
0.0
 11
68.5
 21
186.09999999999991
 31
0.0
  0
LINE
  5
2D1
  8
0
  6
CONTINUOUS
 62
     3
 10
68.5
 20
186.09999999999991
 30
0.0
 11
70.0
 21
186.09999999999991
 31
0.0
  0
LINE
  5
2D2
  8
0
  6
CONTINUOUS
 62
     3
 10
70.0
 20
186.09999999999991
 30
0.0
 11
70.0
 21
187.09999999999999
 31
0.0
  0
LINE
  5
2D3
  8
0
  6
CONTINUOUS
 62
     3
 10
70.0
 20
187.09999999999999
 30
0.0
 11
68.5
 21
187.09999999999999
 31
0.0
  0
LINE
  5
2D4
  8
0
  6
CONTINUOUS
 62
     3
 10
68.5
 20
187.09999999999999
 30
0.0
 11
68.5
 21
188.59999999999991
 31
0.0
  0
LINE
  5
2D5
  8
0
  6
CONTINUOUS
 62
     3
 10
68.5
 20
188.59999999999991
 30
0.0
 11
68.0
 21
188.59999999999991
 31
0.0
  0
LINE
  5
2D6
  8
0
  6
CONTINUOUS
 62
     3
 10
68.0
 20
126.90000000000001
 30
0.0
 11
65.200000000000003
 21
126.90000000000001
 31
0.0
  0
LINE
  5
2D7
  8
0
  6
CONTINUOUS
 62
     3
 10
65.200000000000003
 20
126.90000000000001
 30
0.0
 11
65.200000000000003
 21
125.90000000000001
 31
0.0
  0
LINE
  5
2D8
  8
0
  6
CONTINUOUS
 62
     3
 10
70.799999999999997
 20
126.90000000000001
 30
0.0
 11
70.799999999999997
 21
125.90000000000001
 31
0.0
  0
LINE
  5
2D9
  8
0
  6
CONTINUOUS
 62
     3
 10
68.0
 20
126.90000000000001
 30
0.0
 11
67.040000000000006
 21
125.89
 31
0.0
  0
LINE
  5
2DA
  8
0
  6
CONTINUOUS
 62
     3
 10
68.75
 20
126.84999999999989
 30
0.0
 11
68.0
 21
125.90000000000001
 31
0.0
  0
LINE
  5
2DB
  8
0
  6
CONTINUOUS
 62
     3
 10
65.200000000000003
 20
126.90000000000001
 30
0.0
 11
64.900000000000006
 21
126.90000000000001
 31
0.0
  0
LINE
  5
2DC
  8
0
  6
CONTINUOUS
 62
     3
 10
65.900000000000006
 20
128.90000000000001
 30
0.0
 11
68.0
 21
128.90000000000001
 31
0.0
  0
LINE
  5
2DD
  8
0
  6
CONTINUOUS
 62
     3
 10
64.900000000000006
 20
126.90000000000001
 30
0.0
 11
64.900000000000006
 21
127.90000000000001
 31
0.0
  0
ARC
  5
2DE
  8
0
  6
CONTINUOUS
 62
     3
 10
65.900000000000006
 20
127.90000000000001
 30
0.0
 40
1.0
 50
90.0
 51
180.0
  0
LINE
  5
2DF
  8
0
  6
CONTINUOUS
 62
     3
 10
70.099999999999994
 20
128.90000000000001
 30
0.0
 11
68.0
 21
128.90000000000001
 31
0.0
  0
ARC
  5
2E0
  8
0
  6
CONTINUOUS
 62
     3
 10
70.099999999999994
 20
127.90000000000001
 30
0.0
 40
1.0
 50
0.0
 51
90.0
  0
POLYLINE
  5
2E1
  8
0
 62
     3
 66
     1
 10
0.0
 20
0.0
 30
0.0
  0
VERTEX
  5
36C
  8
0
 62
     3
 10
68.0
 20
126.90000000000001
 30
0.0
  0
VERTEX
  5
36D
  8
0
 62
     3
 10
71.09999999999998
 20
126.90000000000001
 30
0.0
  0
VERTEX
  5
36E
  8
0
 62
     3
 10
71.09999999999998
 20
127.90000000000001
 30
0.0
  0
SEQEND
  5
36F
  8
0
 62
     3
  0
ENDSEC
  0
EOF
